Artist: Live
Song: Shit Towne
Album: Selling the Drama
Tabbed by: Renato Gehringer
_______________________________________
 
G|---------------------------------------------------------------------------
D|---------------------------------------------------------------------------
A|------------1----------1----1------------------------1----------1----1---
E|-2-----4----------4----------------2---------4------------4---------------
 
G|-------------------------------------------------------------------------
D|-------------------------------------------------------------------------
A|--------------4-------------------4------------------4-------2-----------
E|--2----2---------------2---2--------------2--2---------------------------
 
 
G|----------------------------------------------------------------------
D|----------------------------------------------------------------------
A|-----------------------------------------------------------------------
E|-----2--2-----44------6-------88--99—-10-----------------------------
 
 
G|---------------------------------------------------------------------------
D|---------------------------------------------------------------------------
A|---------------------------------------------------------------------------
E|----6--44----6---44-----2----4----6--44----6---44--------------------------


Текст, аккорды и табулатура для песни "Shit Towne", исполняет "Live".
Используемые в песне аккорды можно найти в разделе Как брать аккорды. Аккорды для шестиструнной гитары. Другие песни можно найти на нашем сайте, воспользовавшись алфавитным указателем вверху страницы.


 
Ошибка в тексте? Выделите ошибку и нажмите Ctrl+Enter