Song:      Run to the Water
Artist:    Live
Album:     The Distance to Here
Tabbed By: Jason Mangan

As with almost all Live songs, bass should be detuned a half step, low to high
Eb, Ab, Db, Gb.

Main Riff (Used for intro and verses).                                    Song Structure:
 Triplet          Triplet                                                 Intro
 1  2  3          1  2  3             1st Pre-Chorus                      Verse
|----------------|-----------------| |----------------|---------------|   1st Pre-Chorus
|---7------------|---7-------------| |----------------|---------------|   Verse
|------3---------|---------3-------| |----------------|---------------|   Pre-Chorus
|5---------------|5-----5------3---| |1-----3---------|1-----3--------|   Chorus
 1 * 2 * 3 * 4 *  1 * 2 *  3 * 4 *    1 * 2 * 3 * 4 *  1 * 2 * 3 * 4 *    Verse
                                                                          Pre-Chorus
Pre-Chorus                                                                Chorus
|----------------|----------------|----------------|----------------|     (First 4 bars x2)
|----------------|----------------|----------------|----------------|     Interlude
|----------------|----------------|----------------|----------------|     Guitar Solo
|1-----3---------|1-----3---------|1-1-1-1-1-1-1-1-|3-3-3-3-3-3-3-3-|     (Same as Chorus)
 1 * 2 * 3 * 4 *  1 * 2 * 3 * 4 *  1 * 2 * 3 * 4 *  1 * 2 * 3 * 4 *       Outro

Chorus
|----------------|----------------|----------------|----------------|
|----------------|----------------|----------------|----------------|
|3---3--33-/(5)--|----------------|------------3---|----------------|
|--------------0-|3---3-3---3-3-3-|5---5-5---5---3-|1---1-1---1-1-1-|
 1 * 2 * 3 * 4 *  1 * 2 * 3 * 4 *  1 * 2 * 3 * 4 *  1 * 2 * 3 * 4 * 

|----------------|----------------|----------------|----------------|
|----------------|----------------|----------------|----------------|
|3---3--33-/(5)--|----------------|----------------|----------------|
|--------------0-|3---3-3---3-3-3-|1---------------|3---------------|
 1 * 2 * 3 * 4 *  1 * 2 * 3 * 4 *  1 * 2 * 3 * 4 *  1 * 2 * 3 * 4 * 

Interlude                      (x3)
|----------------|----------------|----------------|----------------|
|----------------|----------------|----------------|----------------|
|----------------|------------5---|----------------|--------------2-|
|5-555-5-------5-|3-333-3-------3-|3-333-3---3---3-|3-333-3---3-5---|
 1 * 2 * 3 * 4 *  1 * 2 * 3 * 4 *  1 * 2 * 3 * 4 *  1 * 2 * 3 * 4 * 

Outro Chorus                                         (bunch of times)
|----------------|----------------|----------------|----------------|----
|----------------|----------------|----------------|----------------|----
|5---5-5-----5---|----------------|----------------|----------------|5---
|--------------0-|5---5-5---5-5-5-|7---7-7---777--|3---3-3---3-3---|----
 1 * 2 * 3 * 4 *  1 * 2 * 3 * 4 *  1 * 2 * 3 * 4 *  1 * 2 * 3 * 4 *  1 *

That's the gist of it anyway.


Текст, аккорды и табулатура для песни "Run To The Water", исполняет "Live".
Используемые в песне аккорды можно найти в разделе Как брать аккорды. Аккорды для шестиструнной гитары. Другие песни можно найти на нашем сайте, воспользовавшись алфавитным указателем вверху страницы.


 
Ошибка в тексте? Выделите ошибку и нажмите Ctrl+Enter