X===============================PLEASE NOTE==============================X
X  This tab is all my own and represents my interpretation of the song.  X
X You may only use this tab for private study, scholarship, or research. X
X  Do not change, deface, mutilate, or in any other way alter this tab.  X
X   You must email me first if you want to use this tab on your site.    X
X========================================================================X


*Perfect One*
Transcribed by [email protected]
Http://home.san.rr.com/obscured


Tuning: Eb Ab Db Gb Bb Eb


INTRO
|-----0------0----0--0----------------------0------0----0--0-------------|
|-----0---/2----0----0----------------------0---/2----0----0-------------|
|--------------------1---1h2p1---1/4~~-1-2-----------------1---1h2p1~~~~-|
|-2------------------2-------------------------------------2-------------|
|-0------------------2-------------------------------------2-------------|
|--------------------0-------------------------------------0-------------|


VERSE
|-0--------0--------|
|-2--------0--------|
|-2--------1--------|
|-2--------2--------|
|-0--------2--------|
|----------0--------|


CHORUS
|---------------------------------------|
|---------------------------------------|
|-------------------2-------------------|
|-2--------4--------2--------2----6r4~~-|
|-2--------4--------0--------2----------|
|-0--------2-----------------0----------|

|--------------------------------------------|
|--------------------------------------------|
|-------------------2------------------------|
|-2--------4--------2--------6-6-6-6-6-6-6-6-|
|-2--------4--------0--------6-6-6-6-6-6-6-6-|
|-0--------2-----------------4-4-4-4-4-4-4-4-|


BRIDGE
|-----------------------------------|
|-----------------------------------|
|-6-----------------5-5-5-5---------|
|-6--------7--------5-5-5-5-6-6-6-6-|
|-4--------7--------3-3-3-3-6-6-6-6-|
|----------5----------------4-4-4-4-|


CHORUS 2 - Same


VERSE 2 - Same


SOLO - Rhythm plays bridge

 Lead
|-------------------------------------|
|-------------------------------------|
|-6-6-6/8-9~~--6/8-9~~--98/9-9-9-8-8-|
|-------------------------------------|
|-4-4-4/6-7~~--4/6-7~~--76/7-7-7-6-6-|
|-------------------------------------|

|-------------------------------------|
|-------------------------------------|
|-6-6-6/8-9~~--6/8-9~~--98/9-9-9-8-8-|
|-------------------------------------|
|-4-4-4/6-7~~--4/6-7~~--76/7-7-7-6-6-|
|-------------------------------------|

|------------------------------------------------------------|
|------------------------------------------------------------|
|-6-6-6/9-14~~--6/9-14~~--14-1413/14-14-14-13-13-14~~~~~~~~-|
|------------------------------------------------------------|
|-4-4-4/7-12~~--4/7-12~~--12-1211/12-12-12-11-11-12~~~~~~~~-|
|------------------------------------------------------------|


CHORUS 3/OUTRO
                                      x3
|---------------------------------------|
|---------------------------------------|
|-------------------2-------------------|
|-2--------4--------2--------2----6r4~~-|
|-2--------4--------0--------2----------|
|-0--------2-----------------0----------|

|--------------------------------------------|
|--------------------------------------------|
|-------------------2------------------------|
|-2--------4--------2--------6-6-6-6-6-6-6-6-|
|-2--------4--------0--------6-6-6-6-6-6-6-6-|
|-0--------2-----------------4-4-4-4-4-4-4-4-|

 Lead fill
|-------------------------------|
|-------------------------------|
|-9-9-98-8-8-86-6-6-64-4-4-4-|
|-------------------------------|
|-7-7-76-6-6-64-4-4-42-2-2-2-|
|-------------------------------|

End on
|-0--------|
|-2--------|
|-2--------|
|-2--------|
|-0--------|
|----------|


Текст, аккорды и табулатура для песни "Perfect One", исполняет "Lit".
Используемые в песне аккорды можно найти в разделе Как брать аккорды. Аккорды для шестиструнной гитары. Другие песни можно найти на нашем сайте, воспользовавшись алфавитным указателем вверху страницы.


 
Ошибка в тексте? Выделите ошибку и нажмите Ctrl+Enter