-------------------------------------------------------------------------------
			     My Own Worst Enemy - Lit
-------------------------------------------------------------------------------

Tabbed By: Funkey Munkey!

This song is a good song, and I really like the riff in it so I thought I’d
try and tab it out, well this is my first submission so please rate it and
if there is any problems e-mail me, but constructive critism please! p.s if
you rate this like a one or two please explain why?

INTRO! Super Riff!

e|---------------------------------------------------------------------------|
B|---------------------------------------------------------------------------|
G|-8-/-9-9-9-9-9-9-9---8-/-9-9-9-9-9-9-9-------------------------------------|
D|-----------------------------------------9--7------------------------------|
A|-6-/-7-7-7-7-7-7-7---6-/-7-7-7-7-7-7-7---9--7------------------------------|
E|-----------------------------------------7--5------------------------------|

VERSE!	

e|---------------------------------------------------------------------------|
B|---------------------------------------------------------------------------|
G|---------------------------------------------------------------------------|
D|-2-2---2-2-2---2-2-2---2-2--9--7-------------------------------------------|
A|-2-2---2-2-2---2-2-2—--2-2--9--7-------------------------------------------|
E|-0-0---0-0-0---0-0-0—--0-0--7--5-------------------------------------------|

CHORUS!

Sounds to me that he lets each note ring for a while but I’m not too sure if
there is two guitarists in this band! But I still strum the notes a few times!

e|---------------------------------------------------------------------------|
B|---------------------------------------------------------------------------|
G|---------------------------------------------------------------------------|
D|-2-------4-------7------7--------------------------------------------------|
A|-2-------4-------7------7--------------------------------------------------|
E|-0-------2-------5------9--------------------------------------------------|

BRIDGE / SOLO!                                 

e|---------------------------------------------------------------------------|
B|---------------------------------------------------------------------------|
G|-8-/-9-9-9-9-9-9-9—8-/-9-9-9-9-9-9-9-/-11-11-------------------------------|
D|-----------------------------------------------x2--------------------------|
A|-6-/-7-7-7-7-7-7-7—6-/-7-7-7-7-7-7-7-/-9--9--------------------------------|
E|---------------------------------------------------------------------------|

e|---------------------------------------------------------------------------|
B|---------------------------------------------------------------------------|
G|-11-/-13-13-13-13-13-13-13-13-13-13-13-13-13-13-/-14-14--------------------|
D|---------------------------------------------------------------------------|
A|-9-/--11-11-11-11-11-11-11-11-11-11-11-11-11-11-/-12-12--------------------|
E|---------------------------------------------------------------------------|

e|---------------------------------------------------------------------------|
B|---------------------------------------------------------------------------|
G|-14-/-16-16-16-16-/-18-18-18-18-/-16-16-16-16-/-14-14-14-14-/-13-13-13-13-/|
D|---------------------------------------------------------------------------|
A|-12-/-14-14-14-14-/-16-16-16-16-/-14-14-14-14-/-12-12-12-12-/-11-11-11-11-/|
E|---------------------------------------------------------------------------|

e|---------------------------------------------------------------------------|
B|---------------------------------------------------------------------------|
G|-14-14-14-14-/-13-13-13-13-/-11-11-11-11-----------------------------------|
D|---------------------------------------------------------------------------|
A|-12-12-12-12-/-11-11-11-11-/--9--9--9--9-----------------------------------|
E|---------------------------------------------------------------------------|

SONG LAYOUT!

INTRO x 4
VERSE x 4
CHORUS x 2
INTRO x  2
VERSE x 4
CHORUS x 2
BRIDGE / SOLO x 1
CHORUS x 4
INTRO x 2

That sound spot on to me but lets see what your ears think? Don’t forget please rate?
E-Mail [email protected]


Текст, аккорды и табулатура для песни "My Own Worst Enemy", исполняет "Lit".
Используемые в песне аккорды можно найти в разделе Как брать аккорды. Аккорды для шестиструнной гитары. Другие песни можно найти на нашем сайте, воспользовавшись алфавитным указателем вверху страницы.


 
Ошибка в тексте? Выделите ошибку и нажмите Ctrl+Enter