Lit - Miserable (live)
Submitted By: TWIGGy5
EMail: [email protected]
Guitarist: Jeremy Popoff
Album: Live at Woodstock ‘99
Dif.: 7
Tabbed by TWIGGy5

NOTE: Tune down half step to (Eb Ab Db Gb Bb Eb)

Intro/Chorus (Clean)
Eb|---|------------------3---3--------|-%-|-%-|-----|
Bb|---|------------------3---3--------|-%-|-%-|-----|
Gb|-8-|-83--3-3-X-------0---0-----X--|-%-|-%-|--8--|
Db|-8-|-83--3-3-X-3--3--0---------X--|-%-|-%-|--8--|
Ab|-6-|-61--1-1-X-3--3--X---------X--|-%-|-%-|--6--|
Eb|---|------------1--1--3------------|-%-|-%-|-----|

Verse (w/ dist.) (“Stuck to this chair……”)
Gb|-7--7--7--7--7--7--7--7--|--------------------|-%-|
Db|-7--7--7--7--7--7--7--7--|-5--5--5--5-5--5--5-|-%-|
Ab|-5--5--5--5--5--5--5--5--|-5--5--5--5-5--5--5-|-%-|
Eb|-6--6--6--6--6--6--6--6--|-3--3--3--3-3--3--3-|-%-|

Pre-Chorus (“I love the things that……”)
Gb|-8-8---------3--3--3--3---2^---(2)~~~~----
Db|-8-8---------3--3--3--3-------------------
Ab|-6-6---------1--1--1--1-------------------
                              ^ bend 1/2 step then bring
						Back down to bracketed 2

Pre-Chorus (cont.)
Gb|-8-8---------3--3--3--3--2^---(2)-------------------------0-
Db|-8-8---------3--3--3--3-------------------------------------
Ab|-6-6---------1--1--1--1-------------------------------------
                             ^ bend 1/2 step then bring
				         Back down to bracketed 2

Pre-Chorus (cont.)
Gb|-2^--(2)--2^--(2)--2^--(2)--2^--(2)--|-%-|-%-|
  ^ bend all notes Ѕ step then bring back down
    To bracketed 2’s

Fill 1
Gb|-5--|
Db|-5--|
Ab|-3--|

Solo (w/ dist. and phaser)
Eb|----------------------------18-18----------18--17--17--10-|
Bb|-/15-15-13--15-15-15/18--15-------18-18-15------------------|

Solo (cont.) (w/ dist. + phaser)
Eb|----------------------------18-18----------18--17--17--10-|
Bb|-/15-15-13--15-15-15/18--15-------18-18-15------------------|
                                     Trem pik while sliding ^

Bridge (Clean)
Eb|---|------------------3---3--------|-%-|-%-|
Bb|---|------------------3---3--------|-%-|-%-|
Gb|-8-|-83--3-3-X-------0---0-----X--|-%-|-%-|
Db|-8-|-83--3-3-X-3--3--0---------X--|-%-|-%-|
Ab|-6-|-61--1-1-X-3--3--X---------X--|-%-|-%-|
Eb|---|------------1--1--3------------|-%-|-%-|

Bridge (cont.)
Gb|-8--83--3-3-X-------------------------8---|
Db|-8--83--3-3-X-3-R---------------------8---|
Ab|-6--61--1-1-X-3-R---------------------6---|
Eb|---------------1-R-------------------------| fade in w/ dist.

Outro (Last “You make me complete”)
Gb|-2^-2-2-2-2-2-2-2-2-2-2-2-2---8------5---------/5----|
Db|------------------------------8------5---------/5----|
Ab|------------------------------6------3---------/3----|
     ^ gradually bend full to full step and while bending
      Pik those Ab notes

Song Structure: -
Bass…… This is one of my……………
Intro
Verse
Pre-Chorus
Verse (“There’s nothing to share……”)
Pre-Chorus
Chorus (w/ dist.)
Fill 1
Solo
Pre-Chorus
Bridge
Chorus (w/o last bar)
Outro

Okay there you go. Pretty nifty live version of the 
song. Oo wa!!!!! Ah ha ha. Any comments corrections or suggestions email me at [email protected]


Текст, аккорды и табулатура для песни "Miserable Live", исполняет "Lit".
Используемые в песне аккорды можно найти в разделе Как брать аккорды. Аккорды для шестиструнной гитары. Другие песни можно найти на нашем сайте, воспользовавшись алфавитным указателем вверху страницы.


 
Ошибка в тексте? Выделите ошибку и нажмите Ctrl+Enter