//// Miserable 

   Artist: Lit
   Tuning: Standard

   Transcribed by Wang ([email protected])
   [email protected]------------

   Clean Distortion - Intro x3
   e:-------------------------------2-|
   B:-------------------------------2-|
   G:7--7--72--2--2----------------3-|
   D:7--7--72--2--2--2--2--2--4--4---|
   A:5--5--5--0--0--2--2--2--4--4---|
   E:-----------------0--0--0--2--2---|


   Verse x3
   e:--------------------------------------------------------------------------|
   B:--------------------------------------------------------------------------|
   G:--5--5--5--5--5--5--5--5--------------------------------------------------|
   D:--6--6--6--6--6--6--6--6--4--4--4--4--4--4--4--4--4--4--4--4--4--4--4--4--|
   A:--5--5--5--5--5--5--5--5--4--4--4--4--4--4--4--4--4--4--4--4--4--4--4--4--|
   E:--------------------------2--2--2--2--2--2--2--2--2--2--2--2--2--2--2--2--|


   Chorus (on last time palm mute chord) x3
   e:-----------------------------------------------------|
   B:-----------------------------------------------------|
   G:-7--7--7--7--7--7--7----------------------6--6--6--6-|
   D:-7--7--7--7--7--7--7--7-7--7--7--7--7--7--6--6--6--6-|
   A:-5--5--5--5--5--5--5--7-7--7--7--7--7--7--4--4--4--4-|
   E:----------------------5-5--5--5--5--5--5-------------|


   Verse
   Chorus
   Intro (with distortion)


   Solo

   e:-9--9--7--9--7--7/12--9--12/17--16-12-12-9--12/17-16/1--9--9--7--9--7--9--9|
   B:---------------------------------------------------------------------------|
   G:---------------------------------------------------------------------------|
   D:---------------------------------------------------------------------------|
   A:---------------------------------------------------------------------------|
   E:---------------------------------------------------------------------------|

   e:/12-12-9--12/17-16-12-12-9--12/17b(18)|
   B:--------------------------------------|
   G:--------------------------------------|
   D:--------------------------------------|
   A:--------------------------------------|
   E:--------------------------------------|

   Chorus
   Intro (Clean Again)
   Intro (Distortion)


Текст, аккорды и табулатура для песни "Miserable", исполняет "Lit".
Используемые в песне аккорды можно найти в разделе Как брать аккорды. Аккорды для шестиструнной гитары. Другие песни можно найти на нашем сайте, воспользовавшись алфавитным указателем вверху страницы.


 
Ошибка в тексте? Выделите ошибку и нажмите Ctrl+Enter