//// Lovely Day 

   Artist: Lit
   Tuning: Tune down Half step: Eb

   Transcribed by Wang ([email protected])
   [email protected]------------

   Intro x2
   e:---------------------------------------------------------------------------|
   B:---------------------------------------------------------------------------|
   G:12-12-12-12-12-12-12-12-12-12-12-12-12-12-12-12-12-12-12-12-12-12-12-12-12-|
   D:12-12-12-12-12-12-12-12-12-12-12-12-12-12-12-12-12-12-12-12-12-12-12-12-12-|
   A:10-10-10-10-10-10-10-10-9--9--9--9--9--9--9--9--X--X--X--X--X--X--X--X--X--|
   E:------------------------------------------------12-12-12-12-12-12-12-12-12-|


   e:---------------------|
   B:---------------------|
   G:12-12-12-12-12-12-12-|
   D:12-12-12-12-12-12-12-|
   A:X--X--X--X--X--9--9--|
   E:12-12-12-12-12-------|

   End with:
   e:-------------------------|
   B:-------------------------|
   G:-------------------------|
   D:-10-10-10-10-10-9--7--9--|
   A:-10-10-10-10-10-9--7--9--|
   E:-8--8--8--8--8--7--5--7--|

   Sorry, I dont know the little soloy bit over the top! Sent it to
   me if you know it!

   On second time end with:
   e:------------------------------------------------|
   B:------------------------------------------------|
   G:------------------------------------------------|
   D:-10-10-10-10-10-9--7--9--10-10-10-10-10-9--7--9-|
   A:-10-10-10-10-10-9--7--9--10-10-10-10-10-9--7--9-|
   E:-8--8--8--8--8--7--5--7--8--8--8--8--8--7--5--7-|


   Verse X2
   e:---------------------------------------------------------------------------|
   B:---------------------------------------------------------------------------|
   G:----------------------------------------7--5-------------------------------|
   D:-5--5--5--5--5--5--5--5--5--5--5--5--5--7--5-5--5--5--5--5--5--5--5--5--5--|
   A:-5--5--5--5--5--5--5--5--5--5--5--5--5--5--3-5--5--5--5--5--5--5--5--5--5--|
   E:-3--3--3--3--3--3--3--3--3--3--3--3--3-------3--3--3--3--3--3--3--3--3--3--|

   e:---------------------------------------------------------------------------|
   B:---------------------------------------------------------------------------|
   G:---------7--5--3--3--3--3--------------------------------------------------|
   D:5--5--5--7--5--3--3--3--3--3--3--3--3--5--5--5--5--5--5--5--5--5--5--5--5--|
   A:5--5--5--5--3--1--1--1--1--3--3--3--3--5--5--5--5--5--5--5--5--5--5--5--5--|
   E:3--3--3--------------------1--1--1--1--3--3--3--3--3--3--3--3--3--3--3--3--|


   e:--------|
   B:--------|
   G:---7--5-|
   D:5--7--5-|
   A:5--5--3-|
   E:3-------|

   Bridge
   e:---------------------------------------------------------------------------|
   B:---------------------------------------------------------------------------|
   G:-8-----8--7--5--3--3--3-----------8--8--8--8--8--7--5--3--3--3-----------8-|
   D:-8-----8--7--5--3--3--3--6--6--6--8--8--8--8--8--7--5--3--3--3--6--6--6--8-|
   A:-6-----6--5--3--1--1--1--6--6--6--6--6--6--6--6--5--3--1--1--1--6--6--6--6-|
   E:-------------------------4--4--4--------------------------------4--4--4----|





   e:---------------------------------------------------------------------------|
   B:---------------------------------------------------------------------------|
   G:-8--8--8---8--7--5--3--3--3-----------5--5--5--3--3--3--4--4--4--4--4--4--4|
   D:-8--8--8---8--7--5--3--3--3--6--6--6--5--5--5--3--3--3--4--4--4--4--4--4--4|
   A:-6--6--6---6--5--3--1--1--1--6--6--6--3--3--3--1--1--1--2--2--2--2--2--2--2|
   E:-----------------------------4--4--4---------------------------------------|


   Chorus x3
   e:---0--0--0--2--2--2--------------4--4--4--|
   B:---0--0--0--2--2--2--------------4--4--4--|
   G:---1--1--1--3--3--3--4--4--4--4--4--4--4--|
   D:---2-----2--4--4--4--4--4--4--4--6--6--6--|
   A:---2-----2--4--4--4--2--2--2--2--6--6--6--|
   E:---0-----0--2--2--2--------------4--4--4--|


   Verse
   bridge
   chorus
   Intro (with soloy bit that I dont know)
   bridge
   chorus

   Wang'99


Текст, аккорды и табулатура для песни "Lovely Day", исполняет "Lit".
Используемые в песне аккорды можно найти в разделе Как брать аккорды. Аккорды для шестиструнной гитары. Другие песни можно найти на нашем сайте, воспользовавшись алфавитным указателем вверху страницы.


 
Ошибка в тексте? Выделите ошибку и нажмите Ctrl+Enter