X===============================PLEASE NOTE==============================X
X  This tab is all my own and represents my interpretation of the song.  X
X You may only use this tab for private study, scholarship, or research. X
X  Do not change, deface, mutilate, or in any other way alter this tab.  X
X   You must email me first if you want to use this tab on your site.    X
X========================================================================X


*Happy*
Transcribed by [email protected]
Http://home.san.rr.com/obscured


Tuning: Eb Ab Db Gb Bb Eb


INTRO
|-------------------------|
|-------------------------|
|-4--4--4--4--4--4--4--4--|
|-4--4--4--4--4--4--4--4--|
|-2--2--2--2--2--2--2--2--|
|-------------------------|


VERSE
|----------------------------------|
|----------------------------------|
|-4--4--4--4--4--4--4--4-----------|
|-4--4--4--4--4--4--4--4--2--------|
|-2--2--2--2--2--2--2--2--2--------|
|-------------------------0--------|


PRECHORUS
|----------------------------------------------------------------------------------------------|
|----------------------------------------------------------------------------------------------|
|-7------------------7-------------------------------------------------------------------------|
|-7----7----5--------7----7----5-5-5-5-5-5-5-5-5-5-5-5-5-5-5-5-4-4-4-4-4-4-4-4-4-4-4-4-4-4-4-4-|
|-5----7----5--------5----7----5-5-5-5-5-5-5-5-5-5-5-5-5-5-5-5-4-4-4-4-4-4-4-4-4-4-4-4-4-4-4-4-|
|------5----3-------------5----3-3-3-3-3-3-3-3-3-3-3-3-3-3-3-3-2-2-2-2-2-2-2-2-2-2-2-2-2-2-2-2-|
                               ...............................................................


VERSE 2 - Same


PRECHORUS 2
|----------------------------------------------------------------------------------------------|
|----------------------------------------------------------------------------------------------|
|-7------------------7-------------------------------------------------------------------------|
|-7----7----5--------7----7----5-5-5-5-5-5-5-5-5-5-5-5-5-5-5-5-5-5-5-5-5-5-5-5-5-5-5-5-5-5-5-5-|
|-5----7----5--------5----7----5-5-5-5-5-5-5-5-5-5-5-5-5-5-5-5-5-5-5-5-5-5-5-5-5-5-5-5-5-5-5-5-|
|------5----3-------------5----3-3-3-3-3-3-3-3-3-3-3-3-3-3-3-3-3-3-3-3-3-3-3-3-3-3-3-3-3-3-3-3-|
                               ...............................................................


CHORUS
                     x2
|----------------------|-------------------|
|----------------------|-------------------|
|-5--------------------|-3-----------------|
|-5----3----5----3--5--|-3--------3--------|
|-3----3----5----3--5--|-1--------3--------|
|------1----3----1--3--|----------1--------|

|--------------------------------------------------------------------------|
|--------------------------------------------------------------------------|
|-3----------------------------------------5-5-5-5-5-5-5-5-5-5-5-5-5-5-5-5-|
|-3--------5-5-5-5-5-5-5-5-5-5-5-5-5-5-5-5-5-5-5-5-5-5-5-5-5-5-5-5-5-5-5-5-|
|-1--------5-5-5-5-5-5-5-5-5-5-5-5-5-5-5-5-3-3-3-3-3-3-3-3-3-3-3-3-3-3-3-3-|
|----------3-3-3-3-3-3-3-3-3-3-3-3-3-3-3-3---------------------------------|
           ...............................................................


INTERLUDE

                  x5
|-4--------3--------|
|-4--------5--------|
|-5--------5--------|
|-6--------5--------|
|-6--------3--------|
|-4-----------------|

|-------------------|
|-------------------|
|-3-----------------|
|-3--------3--------|
|-1--------3--------|
|----------1--------|


CHORUS 2
                     x2
|----------------------|
|----------------------|
|-8--------------------|
|-8----6----8----6--8--|
|-6----6----8----6--8--|
|------4----6----4--6--|

                     x2
|----------------------|
|----------------------|
|-5--------------------|
|-5----3----5----3--5--|
|-3----3----5----3--5--|
|------1----3----1--3--|

                   x2
|--------------------|
|--------------------|
|-5------------------|
|-5----3----5--------|
|-3----3----5--------|
|------1----3--------|

End on
|----------|
|----------|
|-5--------|
|-5--------|
|-3--------|
|-3--------|


Текст, аккорды и табулатура для песни "Happy", исполняет "Lit".
Используемые в песне аккорды можно найти в разделе Как брать аккорды. Аккорды для шестиструнной гитары. Другие песни можно найти на нашем сайте, воспользовавшись алфавитным указателем вверху страницы.


 
Ошибка в тексте? Выделите ошибку и нажмите Ctrl+Enter