Lit- Addicted

Tabbed by: me

Intro
E-----------------------------------|
B-----------------------------------|
G-----------------------------------|
D--x--x--xxx-x-xx-------------------|
A--x--x--xxx-x-xx-------------------|
E--x--x--xxx-x-xx-------------------|

Verse
E-----------------------------------|
B-----------------------------------|
G--4-4------6-6---------------------|  x8
D--4-4--6-6-6-6--4-4-2--------------|
A--2-2--6-6-4-4--4-4-2--------------|
E-------4-4------2-2-0--------------|

Bridge
E-------------------------------------------------------------|
B-------------------------------------------------------------|
G----------------------4--2-----------------------------------|
D--22222222--44444444--4--2--2-22-222-------------------------|
A--22222222--44444444--2--0--2-22-222--6h7-6h7-6h7-6-4-6------|
E--00000000--22222222--------0-00-000-------------------------|

Chorus
E-------------------------------------------------------------|
B-------------------------------------------------------------|
G--4-4-----------------4-4-----------------4-4----------------|
D--4-4-2-2-444444-2-2--4-4-2-2-444444-2-2--4-4-2-2-444444-2-2-|
A--2-2-2-2-444444-2-2--2-2-2-2-444444-2-2--2-2-2-2-444444-2-2-|
E------0-0-222222-0-0------0-0-222222-0-0------0-0-222222-0-0-|

E------------------------|                         E-----------------|
B------------------------|                         B-----------------|
G------------------------| slide pick down string  G-----------------|
D--2-2-2-2-2-2-2-2--4----|                         D--4-4-2----------|
A--2-2-2-2-2-2-2-2--4----|                         A--4-4-2----------|
E--0-0-0-0-0-0-0-0--2----|                         E--2-2-0----------|

Verse
E-----------------------------------|
B-----------------------------------|
G--4-4------6-6---------------------|  x4
D--4-4--6-6-6-6--4-4-2--------------|
A--2-2--6-6-4-4--4-4-2--------------|
E-------4-4------2-2-0--------------|

Bridge
E-------------------------------------------------------------|
B-------------------------------------------------------------|
G----------------------4--2-----------------------------------|
D--22222222--44444444--4--2--2-22-222-------------------------|
A--22222222--44444444--2--0--2-22-222--6h7-6h7-6h7-6-4-6------|
E--00000000--22222222--------0-00-000-------------------------|

Chorus
E-------------------------------------------------------------|
B-------------------------------------------------------------|
G--4-4-----------------4-4-----------------4-4----------------|
D--4-4-2-2-444444-2-2--4-4-2-2-444444-2-2--4-4-2-2-444444-2-2-|
A--2-2-2-2-444444-2-2--2-2-2-2-444444-2-2--2-2-2-2-444444-2-2-|
E------0-0-222222-0-0------0-0-222222-0-0------0-0-222222-0-0-|

E------------------------|                         E-----------------|
B------------------------|                         B-----------------|
G------------------------| slide pick down string  G-----------------|
D--2-2-2-2-2-2-2-2--4----|                         D--4-4-2----------|
A--2-2-2-2-2-2-2-2--4----|                         A--4-4-2----------|
E--0-0-0-0-0-0-0-0--2----|                         E--2-2-0----------|

Solo w/ wah effect
E-------------------------------------------------------------|
B-------------------------------------------------------------|
G------------------------------12-11b-9-8-8/107h8p7-8b-------|
D--12b-12-12-12b--9h11p9h12-9b--------------------------------|
A-------------------------------------------------------------|
E-------------------------------------------------------------|

E-------------------------------------------------------------|
B-------------------------------------------------------------|
G--------7b-----------7b-----12h13-11-9-8-8/107h8p7-8b-8-8---|
D--9b-11----4-4-9b-11----4-4----------------------------------|
A-----------4-4----------4-4----------------------------------|
E-----------2-2----------2-2----------------------------------|

play during last bridge
E-------------------------------------------------------------|
B-------------------------------------------------------------|
G-------------------------------------------------------------|
D--9b-11-12b-11-11-9-9b-11-12b-11-11-9-13-11-11-9-9-11-9-9-9--|
A-------------------------------------------------------------|
E-------------------------------------------------------------|

E-----------------------|
B-----------------------|
G-----------------------|
D--4-4-4-4-4-4-4-4------|
A--4-4-4-4-4-4-4-4------|
E--2-2-2-2-2-2-2-2------|


Chorus
E-------------------------------------------------------------|
B-------------------------------------------------------------|
G--4-4-----------------4-4-----------------4-4----------------|
D--4-4-2-2-444444-2-2--4-4-2-2-444444-2-2--4-4-2-2-444444-2-2-|
A--2-2-2-2-444444-2-2--2-2-2-2-444444-2-2--2-2-2-2-444444-2-2-|
E------0-0-222222-0-0------0-0-222222-0-0------0-0-222222-0-0-|

E------------------------| 
B------------------------|                         
G------------------------| 
D--2-2-2-2-2-2-2-2--4----|                         
A--2-2-2-2-2-2-2-2--4----|                         
E--0-0-0-0-0-0-0-0--2----|                         

Outro
E------------------------------------------------|
B------------------------------------------------|
G--4-4-4-4-4-------------------------------------| x3
D--4-4-4-4-4-2-2-2-4-4-4-4-4-2-2-2---------------|
A--2-2-2-2-2-2-2-2-4-4-4-4-4-2-2-2---------------|
E------------0-0-0-2-2-2-2-2-0-0-0---------------|

E------------------------| 
B------------------------|                         
G------------------------| 
D--2-2-2-2-2-2-2-2--4----|                         
A--2-2-2-2-2-2-2-2--4----|                         
E--0-0-0-0-0-0-0-0--2----|

She calls me up
Says she's comin' over
So I run home 
Just to wait around
She calls me names
Then we play some mind games
And I don't know
But I think I like it 

Now she's the only one 
Who blocks my number
And she's the only one I call 

(Yeah, oh yeah)
What's wrong with me? 
(Yeah, oh yeah)
Why can't I see?
(Yeah, oh yeah)
I'm so addicted to you, and you're such a dick to me 

She flies me out
Got a big surprise planned
In Chicago
That's my kinda town 

She says she's been a ho
Had to let me know
On the Jerry Springer Show 

(Yeah, oh yeah)
What's wrong with me? 
(Yeah, oh yeah)
Why can't I see?
(Yeah, oh yeah)
I'm so addicted to you, and you're such a dick to me 

I wrap myself
Around her little finger
And she gives me the middle one 

(Yeah, oh yeah)
What's wrong with me? 
(Yeah, oh yeah)
Why can't I see?
(Yeah, oh yeah)
I'm so addicted to you, and you're such a dick to me 

She calls and I come runnin' back
I call, she never calls me back
What's wrong with me
I'm so addicted to you...and you're such a dick to me


Текст, аккорды и табулатура для песни "Addicted", исполняет "Lit".
Используемые в песне аккорды можно найти в разделе Как брать аккорды. Аккорды для шестиструнной гитары. Другие песни можно найти на нашем сайте, воспользовавшись алфавитным указателем вверху страницы.


 
Ошибка в тексте? Выделите ошибку и нажмите Ctrl+Enter