Tougher Than Tough
Aynsley Lister (Superkev & Pilchards')

Tabbed by [email protected]

(tune down Ѕ step to Eb)
x  = mute string
b = bend
~~ = vibrato

Aynsley unplugged! - This gives ya a rough idea of how to play this one,
but as always, use your ears and play around with it till it sounds right

Buy it now at www.aynsleylister.com!!!!

Intro
|---------------------|-------------------|-----------------------------|
|-5-5-5---------------|-5-x---x--x-7---5--|--------------x-----x--x--x--|
|-5-6---x---x---x---x-|-5-x---x--x-7---56-|-x--x--x--x---x-----x-—x-—x--|
|-------x---x---x---x-|-4-x---x--x---7----|-x--x--x--x---x-----x--x—-x--|
|-------x---x---x---x-|-5—--3---2---------|-x--x--x--x-0---2/4---7—-6---|
|---------3---2—--0---|-------------------|---3--2--0-------------------|

|------------------|-------------------|------------5-------------------|
|-5-x---x---x---x--|-5-x--x---x-7--5---|------------5--------x---x---x--|
|-5-x---x---x---x--|-5-x--x---x-7--56--|-x--x--x--x----x-----x---x---x--|
|-4-x---x---x---x--|-4-x--x---x---7--7-|-x--x--x--x----x-----x---x---x--|
|-5---3---2---0----|-5---3--2----------|-x--x--x--x-0—-x-2/4---7---6----|
|------------------|-------------------|---3--2--0----------------------|	
|------------------------------------|----------------------------------|
|---x---x---x------x---x---x---------|---------------------6/7-7--------|
|---x---x---x--6-7-x---x---x---------|-x---x---x---x---x---6/7-7--------|
|---x---x---x--5-6—x-4-x-5-x-6-7~~~--|-x---x---x---x---x---5/6-6--------|
|-2-—-4---5----6-7-------------------|-x---x---x---x---x---6/7-7--------|
|------------------------------------|---3—--2—--1---0------------------|

Verse1
|-----4-5--------|----4-5------|-----4-5-------|-------------5----------|
|-----4-5--------|----4-5------|-----4-5-------|-------------5----------|
|-----3-4--------|----3-4------|-----3-4-------|-------------4----------|
|-----4-5--------|----4-5------|-----4-5-------|-------------5----------|
|----------------|-------------|---------------|------------------------|
|----------------|-------------|---------------|------------------------|	
1.Well now ??? getting steeper money getting cheaper I'd buy myself a woman but I just couldn't keep her

2. Pork chops on the market I asked my butcher for a pound I couldn't buy a pork chop
when I laid my money down

3.Well I can't afford a lift I guess Ill have to tramp(?) Cause I ain't got no money and
Its costs too much to die

Chorus
|--------------------------------|------------------|-------------------|
|-5-x---x---x---x--5-x---x---x---|------------------|----x----x---x---x-|
|-5-x---x---x-—-x--5-x---x---x---|-x--x---x---x---x-|----x----x---x---x-|
|-4-x---x---x-—-x--4-x---x—--x---|-x--x---x---x---x-|----x----x---x---x-|
|-5—--3---2---0----5---3---2—--0-|-x--x---x---x---x-|--0—-2/4---7---6---|
|--------------------------------|---5---3---2---0--|-------------------|
Times getting tougher than toughThings getting rougher than rough

|-----------------------------------|----------------------------------|
|------x---x---x------x---x---x---x-|----x---x---x---x-----------------|
|------x---x---x-6-7--x---x---x---x-|----x---x---x---x—-6-7--6/7~~-----|
|------x---x—--x-5-6--x---x---x---x-|----x---x---x---x—-5-6--5/6~~-----|
|----2---4---5---6-7----5---4---2---|--0---4---5---6----6-7--6/7~~-----|
|-----------------------------------|----------------------------------|
  I make a lot of money I just keep spending the stuff

Solo1
|-8-8/9-------------|-------------------|-------------------------------|
|-7-7/8-------------|--5-x---x---x---x--|-7--5---------7--5-------------|
|-8-8/9-x--x--x--x--|--5-x---x---x---x--|-7--56--x--x--7--56---x--x---x-|
|-------x--x--x--x--|--4-x---x---x---x--|---7----x--x----7--7--x--x---x-|
|-------x--x--x--x--|--5---3---2---0----|--------x--x----------x--x---x-|
|--------3--2--0----|-------------------|------3--2-----------3--2--0---|

|--------------|-----------|-/999-999-9--|------------------------------|
|-555-555-5----|-555-555-5-|-/888-888-8--|---88---77--------------------|
|-555-555-5---|-555-555-5-|-/999-999-9--|-/999--888--777--5------------|
|-444-444-4---|-444-444-4-|-------------|------------------7-5---------|
|-555-555-5---|-555-555-5-|-------------|----------------------7-------|
|--------------|-----------|-------------|------------------------------|

|-------------------------------------|---------------------------------|
|-x--x---x---x----x---x---x---x-------|-x---x---x---x---x----x---x------|
|-x--x---x---x--6-x-7-x---x---x-------|-x---x---x---x---x----x---x------|
|-x--x---x---x--5-x-6-x-4-x-5-x-6-7~~~|-x-5-x-4-x---x---x--3-x-2-x------|
|---2--—4---5---6---7-----------------|-----------3---2-----------------|
|-------------------------------------|---------------------------------|	
Solo 2
|-8-8/9---9--|---------|----------------|-----5-------------------------|
|-7-7/8—--8--|-4-5-5---|----------------|----5---8---7--5---------------|
|-8-8/9---9--|-4-5-5---|-7(b)-7-5-------|--56-------------7(br)5—-5-----|
|------------|-3-4-4---|----------7-----|------------------------7-75---|
|------------|-4-5-5---|-----------0----|-0--------------------------7--|
|------------|---------|----------------|-------------------------------|	

|--------5--------------------------------------|
|---x-x--5-------10--13--12--10---13(b2)10------|
|---x-x--5---/11---11--11--11---11---------11~~-|
|-0—x-x--4--------------------------------------|
|---x-x--5--------------------------------------|
|-----------------------------------------------|

|-------------10-12----------------------|-------------------------------|
|-------10---x------13-10--12--10-12(b2)-|--x--x--x--x--x---x---x--------|
|----/11----x------------11--11----------|--x--x--x--x--x---x---x--------|
|----------------------------------------|--x--x—-x-—x-—x-4-x-5—x-6--7~~-|
|0-0-------------------------------------|-2--4--5--6--7-----------------|
|----------------------------------------|-------------------------------|

|--------5-------------------------------|--------------------------------|
|-------5--8-5---5-----------------------|--------------------------------|
|--5-7(b2)-----7---7-5—-7(br)5-----7~----|-------5-5-------------5-5------|
|-----------------------------75---6~----|-------4-4-------------4-4------|
|--------------------------------7-7~----|-------5-5-------------5-5------|
|----------------------------------------|--------------------------------|
				Well now times getting tougher than tough	

|----------------------------------------------|
|-----------5----------5------------5----5-----|
|-----------4----------4------------4----4-----|
|-----------5----------5------------5----5-----|
|----------------------------------------------|
|----------------------------------------------|
 I said things getting rougher than rough

|----------------------------------|------------------------------------|
|------x---x---x------x---x---x----|----x---x---x---x-------------------|
|------x---x---x-6-7--x---x---x----|----x---x---x---x—6-7--6/7~~--------|
|------x---x—--x-5-6--x---x---x----|----x---x---x---x—5-6--5/6~~--------|
|----2---4---5---6-7----5---4---2--|--0---4---5---6---6-7--6/7~~--------|
|----------------------------------|------------------------------------|
  I make a lot of money I just keep spending the stuff

Solo2
|-------------------|------------------|-----14--------14---------------|
|--1717-----1717----|-1717171717171717-|--17----17--17----17------------|
|--1717-----1717----|------------------|--17----17--17----17------------|
|-------------------|-0-0-0-0-0-0-0-0--|--------------------------------|
|--0-0-0-0-0-0-0-0--|------------------|-0—0--0--0--0--0--0--0----------|
|-------------------|------------------|--------------------------------|

|--15--12-----------------|---------------------------------------------|
|--------15---15(br)13----|---------------------------------------------|
|--------------------1414-|---7(b1)-7(b1)-7(br)5---5--------------------|
|-------------------------|-0-------------------7---75------------------|
|-------------------------|----------------------------7--5~~~----------|
|-------------------------|---------------------------------------------|

                                                                
|-----------------------------------|---------------------5--5----------|
|-----------------------------------|-----------------------8-----------|
|------------------9/7--------------|-------------------------565656----|
|------7----7/10-12-----12-10/7-7~~~|-5--7-5----------------------------|
|--5/9---9--------------------------|--7-----7/5-3----------------------|
|-----------------------------------|--------------5-3-5----------------|

|-----------------------------------|-----------------------------------|
|-x--x---x---x------x---x---x-------|---------------------6/7-7---------|
|-x--x---x---x--6-7-x---x---x-------|-x---x---x---x---x---6/7-7---------|
|-x--x---x---x--5-6—x-4-x-5-x-6-7~~~|-x---x---x---x---x---5/6-6---------|
|--2-—-4---5----6-7-----------------|-x---x---x---x---x---6/7-7---------|
|-----------------------------------|---3—--2—--1---0-------------------|

Ending
|------------------------------|
|--x--x--x----x---x---x--x--x--|
|--x--x--x----x---x---x--x--x--|
|--x--x--x--2-x-4-x---x--x--x--|
|---0--4------------0--4--7—6--|
|------------------------------|


Текст, аккорды и табулатура для песни "Tougher Than Tough", исполняет "Lister Aynsley".
Используемые в песне аккорды можно найти в разделе Как брать аккорды. Аккорды для шестиструнной гитары. Другие песни можно найти на нашем сайте, воспользовавшись алфавитным указателем вверху страницы.


 
Ошибка в тексте? Выделите ошибку и нажмите Ctrl+Enter