Guitar tabulature for           WHEN THE WATER BREAKS

Music: Liquid Tension Experiment
Album: Liquid Tension Experiment 2
Author: Ossi Peltola ([email protected])



   vol.swell

   0:33              0:35
E :-----------------|-10--------------|
B :-10--------------|-----------------|
G :-----------------|-----------------|
D :-----------------|-----------------|
A :-----------------|-----------------|
E :-----------------|-----------------|

   0:38                                0:42
E :------------------|----------------|--------------------|
B :------------------|----------------|--------------------|
G :------------------|----------------|--------------------|
D :--5---3-5-6-------|----------------|--5---3-5-6-5-3-----|
A :------------------|----------------|----------------6---|
E :3---3-------------|----------------|3---3---------------|

                    0:45
E :----------------|--------------------|----------------|
B :----------------|--------------------|----4-----------|
G :----------------|--------------------|------6---------|
D :----------------|--5---3-5-6-5-3-----|6-------7-----6-|
A :----------------|----------------6---|--4-------5-----|
E :----------------|3---3-------------4-|------------2---|

   0:49                 0:51
E :--------------------|------------9-10-11--------------|
B :--------------------|----------9---------11-----------|
G :--------------------|------6-7-------------9-8--------|
D :--5---3-5-6-5-3-----|----6---------------------8------|
A :----------------6---|6-5-------------------------7-6-5|
E :3---3-------------4-|---------------------------------|

   0:53                                  0:56
E :--------------------|----------------|--------------------------------|
B :--------------------|----4-----------|------------------4-------------|
G :--------------------|------6---------|--------------6-7---------------|
D :--5---3-5-6-5-3-----|6-------7-----6-|5---3-5-6-----------8-7-10-9----|
A :----------------6---|--4-------5-----|----------4-5----------------8-7|
E :3---3-------------4-|------------2---|--3-----------------------------|

   0:58
E :-------------------------------|------------------------------|
B :--------8-7---10-9-----8-7-----|------------------------------|
G :-------------------6-7---------|--10-9-----9-7----------------|
D :---9-10--------------------10-9|8------7-6-----5---4------3---|
A :-9-----------------------------|---------------------4------2-|
E :-------------------------------|-----------------------2------|

E :------------------------|
B :------------------------|
G :------------------------|
D :-2----------------------|
A :---1-----6-----5--------|
E :-----0-----5-4----------|

   1:02                                   1:05
E :--------------------------------------|--------------------------|
B :------b13----r---------------------13-|----b11--r--9-h-11p9s8----|
G :-12-----------------12----------------|10------------------------|
D :--------------------------------------|--------------------------|
A :--------------------------------------|--------------------------|
E :--------------------------------------|--------------------------|


   1:08                   1:11                      1:14
E :-----------------------|-------------------------|----------------------|
B :-8---------------------|-------------------------|---b13-r--15-16-------|
G :----8(20)-s5-5-s7--5---|5--h7-p5-s4--s7-7~---0-12|12--------------------|
D :-----------------------|-------------------------|----------------------|
A :-----------------------|-------------------------|----------------------|
E :-----------------------|-------------------------|----------------------|

   1:16                      1:19
E :----------15-h16---15----|-11-13-10----------|
B :---b18-r-----------------|----------8--------|
G :15-----------------------|-------------------|
D :-------------------------|-------------------|
A :-------------------------|-------------------|
E :-------------------------|-------------------|

   1:22                                        1:24
E :10-11-p10p8p7---8p7-------------------|20-----s15-s18-----16-p15|
B :--------------8-----8-----------------|-------------------------|
G :----------------------10--------------|-------------------------|
D :-------------------------10-p8--------|-------------------------|
A :-------------------------------10p8h10|-------------------------|
E :--------------------------------------|-------------------------|

   1:27                   1:29
E :16--------------------|20------------------------------------|
B :-------18-18-s20------|---br18-16----------16----------------|
G :----------------------|-----------17----15----17-17~-------8-|
D :----------------------|--------------17-----------------10---|
A :----------------------|--------------------------------------|
E :----------------------|--------------------------------------|

   1:32  Gradual bend               1:35
E
:----------------------------------|----------------------------------------
|
B
:-----------------------+1---------|-15--16p15p13-15---16p15p13-15---16-s18-
|
G
:10-10-10-10---10-10-10-b10-~------|----------------------------------------
|
D
:----------------------------------|----------------------------------------
|
A
:----------------------------------|----------------------------------------
|
E
:----------------------------------|----------------------------------------
|

   1:38                                          1:40
E
:-------------------------------------------18|21----------------18-b19r---|
B
:-s20-21p20p18h---20-p21p20p18-20-----20-21---|-------21-p18-21------------|
G
:---------------------------------------------|----------------------------|
D
:---------------------------------------------|----------------------------|
A
:---------------------------------------------|----------------------------|
E
:---------------------------------------------|----------------------------|

   1:43
E :-19------19-----19-------22-----22--24-24-|
B :------18----18-(18)---21----21-(21)-------|
G :------------------------------------------|
D :------------------------------------------|
A :------------------------------------------|
E :------------------------------------------|

   1:47                                1:50-1:57
E :-24h7p0--------------------------|--------------------------|
B :----------12-p0----------9-s10----|-10~----------------------|
G :------------------------9----------|--------------------------|
D :----------------------9------------|--------------------------|
A :--------------------7--------------|--------------------------|
E :-----------------------------------|--------------------------|

   2:10               2:13             2:16
E :-----------------|----------------|----------------|
B :-----------------|----------------|-5-----------1--|
G :-----------------|--2-------------|--------5-4-(4)-|
D :2-----s5---------|----------------|----------------|
A :-----------------|----------------|----------------|
E :-----------------|----------------|----------------|

                       2:34
   2:28                |_|_|_|_|_|_|_|_|_|_|_|_|_|_  2:40     | denotes 8th
note downbeat
E :-------------------|----------------------------|-0------| _ denotes 8th
note upbeat
B :-------------------|-------------------------|--------|
G :-B14r--------------|-------------------------|--------|
D :-------------------|-------------------------|--------|
A :-------------------|----------------------------|--------|
E :-------------------|----------------------------|--------|
                       7/4


    2:45       x3 2:49            2:50
E :|-----------||---------------|------------------|
B :|-10-8-7----||-8-8-7---------|-10-8-7---10-8-7--|
G :|*-------9-*||-------9-------|--------9--------9|
D :|*---------*||---------------|------------------|
A :|-----------||---------------|------------------|
E :|-----------||---------------|------------------|


   2:53
E :-----------------------------|
B :------------------8-x-10-x---|
G :-7-5-7-9-x-7-x-9-x---------9-|
D :-----------------------------|
A :-----------------------------|
E :-----------------------------|


  2:56                 2:59                  3:03
E :-------------------|----10---------------|5---------------------|
B :12-10-----------10p|8------7--8p7p5-----|----------------------|
G :------9------------|---------------------|--b7r-p5h7--b4r-----9-|
D :-------------------|---------------------|----------------------|
A :-------------------|---------------------|----------------------|
E :-------------------|---------------------|----------------------|


   3:07                      3:15
E :---------------10---b12r-|----15----17----b17-17r------12-14-|
B :12-10---10p8------8------|/13----13----13--------------------|
G :------9------------------|-----------------------------------|
D :-------------------------|-----------------------------------|
A :-------------------------|-----------------------------------|
E :-------------------------|-----------------------------------|


   3:18                           3:20
E :---15-b14--r------------------|-----15-----------------------|
B :---------------15--------10-12|13-------12-------13-12-10----|
G :------------------14----------|---------------------------12-|
D :------------------------------|------------------------------|
A :------------------------------|------------------------------|
E :------------------------------|------------------------------|


   3:23                      3:26
E :-------------------------|---------------------|
B :10-----------------------|---------------------|
G :-----12-b11r-------------|-----------9-12-11-12|
D :-------------12----14/16|10-9-10-12-----------|
A :----------------12-------|---------------------|
E :-------------------------|---------------------|


   3:29
E
:14-15-17-14-15-14---12-14-15-12-14----10-12-14-10-12--8-10-12-8-10--7-8-
10-7--|
B
:---------------------------------------------------------------------------
------|
G
:---------------------------------------------------------------------------
------|
D
:---------------------------------------------------------------------------
------|
A
:---------------------------------------------------------------------------
------|
E
:---------------------------------------------------------------------------
------|


   3:31
E :|-8p7---------------------------|
B :|-----10---8p-7h-8--10s12p10----|
G :|-------------------------------|
D :|-------------------------------|
A :|-------------------------------|
E :|-------------------------------|
   |                               |
E :|-8-7---------------------------|  2nd guitar
B :|-----10---15p13h15-17s19p15----|
G :|-------------------------------|
D :|-------------------------------|
A :|-------------------------------|
E :|-------------------------------|


   3:34
E
:-14-15-17-14-15-14---12-14-15-12-14-----10-12-14-10-12---8-10-12-8-10---
7--8--10-12|
B
:---------------------------------------------------------------------------
-----------|
G
:---------------------------------------------------------------------------
-----------|
D
:---------------------------------------------------------------------------
-----------|
A
:---------------------------------------------------------------------------
-----------|
E
:---------------------------------------------------------------------------
-----------|
  :
|
E
:-17-19-20-17-19-17---15-17-19-15-17-----14-15-17-14-15--12-14-15-12-14--
10-12-14-10|
B
:---------------------------------------------------------------------------
-----------|
G
:---------------------------------------------------------------------------
-----------|
D
:---------------------------------------------------------------------------
-----------|
A
:---------------------------------------------------------------------------
-----------|
E
:---------------------------------------------------------------------------
-----------|



   3:37
E :10--8-10----------19-b22r------|
B :---------------20--------------|
G :------------19-----------------|
D :-------------------------------|
A :-------------------------------|
E :-------------------------------|
  :                               |
E :12----------------19-b22r------|
B :---15-(15)-----20--------------|
G :-------12---19---------------9-|
D :-------------------------------|
A :-------------------------------|
E :-------------------------------|


   3:39                 3:42                 3:45
E :--------------------|------10------------|-----------5--------|
B :12s----10---------10|p8-------7------8-p7|p5---------5--------|
G :----------9---------|--------------------|--------------b7r-p5|
D :--------------------|--------------------|--------------------|
A :--------------------|--------------------|--------------------|
E :--------------------|--------------------|--------------------|

   3:48               3:51                     3:53
E :------------------|------------------------|-------------------------|
B :------------------|12-----10-s13-----------|-------------------------|
G :7----b4r---------9|-------------------16-14|12----14s-16-14----------|
D :---------7--------|------------------------|--------------------17-16|
A :------------------|------------------------|-------------------------|
E :------------------|------------------------|-------------------------|

   3:56
E :------------------------------------------------24-24-20-20---------|
B :------------------------------------22-22-20-20---------------------|
G :------------------------21-21-19-19---------------------------------|
D :14----------19-19-17-17---------------------------------------------|
A :------17-17---------------------------------------------------------|
E :--------------------------------------------------------------------|

   3:59                                4:01
E :22----b19-r------------------------|--------------------|
B :-----------20----------------------|---------b15--------|
G :--------------19-17-16-17-19--17-16|14----12------------|
D :-----------------------------------|--------------------|
A :-----------------------------------|--------------------|
E :-----------------------------------|--------------------|

   4:04                        4:07
E :---------------------------|--------b15--15r------|
B :b15--b15r-p13-15-----------|----------------------|
G :----------------------17-16|14--12----------------|
D :---------------------------|----------------------|
A :---------------------------|----------------------|
E :---------------------------|----------------------|

  4:10
E :15------------------|
B :-------b15-r--------|
G :--------------------|
D :--------------------|
A :--------------------|
E :--------------------|

    4:12                            4:15
E :|-------------------------------|--------------------------15-17-14----|
B :|--10-----8---7---------10---8--|-7-----8-10---------13-15----------15-|
G :|*----9-----9---7-9---9----9---9|---7--------9----12-------------------|
D :|*------7-----------7-----------|-----7--------10----------------------|
A :|-------------------------------|--------------------------------------|
E :|-------------------------------|--------------------------------------|

   4:18
E :-----------------------------|
B :10-----8---7---------10---8--|
G :---9-----9---7-9---9----9---9|
D :-----7-----------7-----------|
A :-----------------------------|
E :-----------------------------|

   4:20
E :---------------12-14-15-17-12-15-14------------------------------ 2|
B :---------15-13----------------------15----13-12-10--------------- ||
G :11-12-14-------------------------------14----------12-11-9-------*||
D :-----------------------------------------------------------12-10-*||
A :----------------------------------------------------------------- ||
E :----------------------------------------------------------------- ||

     4:34                          4:37
    :-----------------------------|-----------------------------|
    :------------------------(C)--|-----------------------------|
    :------------------------A.H.-|-------------------------7--|
    :-----5---3-----2-----3---3---|-----7---5-----4-----5-------|
    :---3---3---3-----3-----3-----|---5---5---5-----5-----5-----|
    :-1-----------1-----1---------|-3-----------3-----3---------|
    P.M. all (only G on D string)  P.M. all (only A on D string)


   4:39                         4:42
E :---------------------------|---------------------------|
B :---------------------------|-------------------------8-|
G :-------------------------5-|-----2---4-----6---7-------|
D :-----5---3-----2-----3-----|-----------------------5---|
A :---3---3---3-----3-----3---|---5---5---5-----5---------|
E :-1-----------1-----1-------|-3-----------3-------3-----|
   P.M. all                    P.M. all except G and B string


                     5:04
   4:45                 |_|_|_|_|_|_|_|_|_|_|_|_  


Текст, аккорды и табулатура для песни "When The Water Breaks", исполняет "Liquid Tension".
Используемые в песне аккорды можно найти в разделе Как брать аккорды. Аккорды для шестиструнной гитары. Другие песни можно найти на нашем сайте, воспользовавшись алфавитным указателем вверху страницы.


 
Ошибка в тексте? Выделите ошибку и нажмите Ctrl+Enter