State of Grace
by the Liquid Tension Experiment
transcribed by Shawn Mull


~   vibrato
/   slide up
   slide down
^   bend
v   hit the note, then whammy down and up quickly
h   hammer on
p   pull off


Open with Piano


|------------------------------------|--------------------------------------|
|------------------------------------|--------------------------------------|
|------10---------10-/-12~~~~~-------|-------------7------------------------|
|-10----------10---------------------|--7-8-10~~------5-/-7^8^7--53-3/5~---|
|------------------------------------|--------------------------------------|
|------------------------------------|--------------------------------------|

|------------------------------------|--------------------------------------|
|------------------------------------|--------------------------------------|
|------10---------10-/-12----/-14v---|--12----------------------------------|
|-10----------10---------------------|---------12----15--15---14v-----------|
|------------------------------------|--------------------------------------|
|------------------------------------|--------------------------------------|

|------------------------------------|--------------------------------------|
|-------------------17--17--18~~-----|--------------------------------------|
|-14-15--15/17~~---------------------|-15----14--15--17~--------------------|
|------------------------------------|---------------------15--14--12~~-----|
|------------------------------------|--------------------------------------|
|------------------------------------|--------------------------------------|

|-------------------15--15-/17--13~--|--------------------------------------|
|------------------------------------|--------------------------------------|
|-14-15--15/17~~---------------------|-15--14--12---10-/--12--12~~--------|
|------------------------------------|--------------------------------------|
|------------------------------------|--------------------------------------|
|------------------------------------|--------------------------------------|

|------------------------------------|--------------------------------------|
|------------------------------------|--------------------------------------|
|-14---15--15/17~~--12---14---15~~--|-10--12--12/14~---10--9--------------|
|------------------------------------|----------------------------14^15^14--|
|------------------------------------|--------------------------------------|
|------------------------------------|--------------------------------------|

|------------------------------------|--------------------------------------|
|------------------------------------|--------------------------------------|
|------------------------------------|-/14-14--15~-----1412--10-/-12~~----|
|-12---14--15~----14-12-----14--15---|--------------------------------------|
|-----------------------15-----------|--------------------------------------|
|------------------------------------|--------------------------------------|

|------------------------------------|--------------------------------------|
|------------------------------------|--------------------------------------|
|-14---15--15/17~~--12---14---15~~--|-10--12--12^14^12--10--109~~--------|
|------------------------------------|--------------------------------------|
|------------------------------------|--------------------------------------|
|------------------------------------|--------------------------------------|

|------------------------------------|------------17-17-18---171513/15~---|
|---------------------------------/15|--17--18~-----------------------------|
|-------------------------------15---|--------------------------------------|
|-14^15^14--12h14p1210--/12-15------|--------------------------------------|
|------------------------------------|--------------------------------------|
|------------------------------------|--------------------------------------|

|------------------------------------|--------------------------------------|
|-17^18^17--15--13-------------------|--------------------------------------|
|-------------------14---------------|--------------------------------------|
|-----------------------15~~--------|-14^15^14~~---------------------------|
|------------------------------------|--------------------------------------|
|------------------------------------|--------------------------------------|

|------------------------------------|--------------------------------------|
|------------------------------------|--------------------------------------|
|------------------------------------|--------------------------------------|
|-9--9--10~-------------------------|-/13---12^13^12~~---------------------|
|------------------------------------|---------------------12--12---13~~---|
|------------------------------------|--------------------------------------|

|------------------------------------|--------------------------------------|
|------------------------------------|--------------------------------------|
|------------------------------------|-14---15~~-----17-^-18-^-17~~--------|
|------------------------------------|--------------------------------------|
|--15----12---13~~-------------------|--------------------------------------|
|------------------------------------|--------------------------------------|
                                                  gradual bend/release

|------------------------------------|--------------------------------------|
|------------------------------------|--------------------------------------|
|------------------------12--14~~----|--------/17---15-------------12/14----|
|--------------------13--------------|-15-15------------15---12------------|
|-13~~----------13------------------|--------------------------------------|
|------------------------------------|--------------------------------------|

|------------------------------------|--------------------------------------|
|------------------------------------|--------------------------------------|
|-12^14^12---------------------------|--------------------------------------|
|--------------15-----------14--12---|--------------------------------------|
|--------------------15-15-----------|-15--13--15~--------------------10-12-|
|------------------------------------|----------------13--15v--------------|

|------------------------------------|--------------------------------------|
|------------------------------------|--------------------------------------|
|------------------------12--14~~----|--------/17---15-------------12/14----|
|--------------------13--------------|-15-15------------15---12------------|
|--13~~----------13------------------|--------------------------------------|
|------------------------------------|--------------------------------------|

|------------------------------------|--------------------------------------|
|------------------------------------|--------------------------------------|
|-15--12---14------------------------|--------------------------------------|
|-------------15-----------14--15---|-12-----------------------------------|
|-----------------------15-----------|-----13-------------------------------|
|------------------------------------|---------15----13--12v---------------|

|------------------------------------|--------------------------------------|
|------------------/17--17--18~~-----|--------------------------------------|
|-14-15--15/17~~---------------------|-15----14--15--17~--------------------|
|------------------------------------|---------------------15--14--12---10~-|
|------------------------------------|--------------------------------------|
|------------------------------------|--------------------------------------|

|------------------/15--15--17-13~--|------17^19^17---15---13-/15--15~-----|
|------------------------------------|--15----------------------------------|
|-14-15--15/17~~---------------------|--------------------------------------|
|------------------------------------|--------------------------------------|
|------------------------------------|--------------------------------------|
|------------------------------------|--------------------------------------|
                                      gradual bend/release

|------------------------------------|--------------------------------------|
|------------------------------------|--------------------------------------|
|-14---15--15/17~~--12---14---15~~--|-10--12--12/14~--10-9----------------|
|------------------------------------|-----------------------14^15^14-12-10-|
|------------------------------------|--------------------------------------|
|------------------------------------|--------------------------------------|

|------------------------------------|--------------------------------------|
|------------------------------------|--------------------------------------|
|------------------------------------|-/14-14--15~-----1412--10-/-12~~----|
|-12---14--15~----14-12-----14--15---|--------------------------------------|
|-----------------------15-----------|--------------------------------------|
|------------------------------------|--------------------------------------|

|------------------------------------|
|------------------------------------|
|-12^13^12--12---10h12p109----------|
|----------------------------12--10--|
|------------------------------------|
|------------------------------------|

|------------------------------------|--------------------------------------|
|------------------------------------|--------------------------------------|
|/14---15--15/17~~--12---14---15~~--|-10--12--12^14^12--10--109~~--------|
|------------------------------------|--------------------------------------|
|------------------------------------|--------------------------------------|
|------------------------------------|--------------------------------------|

|------------------------------------|-----------/17-17-18---171513/15~---|
|---------------------------------/15|-17--18~~-----------------------------|
|-------------------------------15---|--------------------------------------|
|-14^15^14--12h14p1210--/12-15------|--------------------------------------|
|------------------------------------|--------------------------------------|
|------------------------------------|--------------------------------------|

End with Piano


Текст, аккорды и табулатура для песни "State Of Grace", исполняет "Liquid Tension".
Используемые в песне аккорды можно найти в разделе Как брать аккорды. Аккорды для шестиструнной гитары. Другие песни можно найти на нашем сайте, воспользовавшись алфавитным указателем вверху страницы.


Слушать онлайн State Of Grace


Jordan RudessState Of Grace на Яндекс.Музыке


 
Ошибка в тексте? Выделите ошибку и нажмите Ctrl+Enter