Freedom of Speech (first guitar solo)
The Liquid Tension Experiment

Transcribed by: Andy Sekelsky

[email protected]

/  slide up
  slide down
^  bend
h  hammer on
p  pull off


First minute and fifteen seconds opens with piano


First guitar solo

E:--------------------------------------------------
B:---------------------------------------------17^^-
G:-------7---(7)/-------9-7--------11---(11)/-------
D:--4-5------------X---------4-5--------------------
A:--------------------------------------------------
E:--------------------------------------------------

E:--------------------------------------------------
B:--------------------------------17-15----10h12-10-
G:-------7--14--14^R12/11-11-12--------------------
D:--4-5---------------------------------------------
A:--------------------------------------------------
E:--------------------------------------------------

E:--------------------------------------------------
B:------------------------------------17^-17^--15^R-
G:--12-9^-9^-(9)p7p5-----------14-16----------------
D:-------------------7------16----------------------
A:--------------------------------------------------
E:--------------------------------------------------

E:----------------------------------------
B:----------------------------------17-20-
G:--171614--------------------171920------
D:--------171614--------171920------------
A:---------------17-----------------------
E:----------------------------------------

E:----------17-------------------------------------
B:-17-19-20----20p19-19p17----17-------------------
G:-------------------------19----21---21-19-17-16--
D:-------------------------------------------------
A:-------------------------------------------------
E:-------------------------------------------------

E:-------------------------------------------------
B:-------------------------------------------------
G:---16---16---16----16---16---16---16----16-------
D:-19---17---16---14----19---17---16---14-----12---
A:-------------------------------------------------
E:-------------------------------------------------

                     p.h.
E:-------------------------------------------------
B:-------------------------12---12-1414-12---------
G:----------------------------------------141211---
D:--151412-----------12-------------------------12-
A:--------151412-----------------------------------
E:--------------12---------------------------------

E:------------------------------------------161719------
B:----------161719----------161719-----161719-----------
G:-----161819----------161819-----161819----------------
D:161819----------161819--------------------------------
A:------------------------------------------------------
E:------------------------------------------------------


E:----------161719161719--19^--171514171514171514171514-
B:-----161719-------------------------------------------
G:161819------------------------------------------------
D:------------------------------------------------------
A:------------------------------------------------------
E:------------------------------------------------------

E:-14^-14-15----------------------------------17--------
B:-----------17-15-14-17^-----------19^-19p17------19^--
G:-----------------------------1719---------------------
D:------------------------19---------------------------
A:------------------------------------------------------
E:------------------------------------------------------

E:----------------------------------------------
B:-19p17---17----17----------14-15-14-----------
G:------19----17----15----15----------16-11-14--
D:----------------------------------------------
A:----------------------------------------------
E:----------------------------------------------

E:------------------------15-17-19---
B:---------------14-15-17------------
G:-1214/12----15--------------------
D:-----------------------------------
A:-----------------------------------
E:-----------------------------------

E:-171514-151412-141210-12108-1087---------------------
B:--------------------------------1087-----------------
G:--------------------------------------7----5p4h5-----
D:-----------------------------------------------------
A:-----------------------------------------------------
E:-----------------------------------------------------


Текст, аккорды и табулатура для песни "Freedom Of Speech", исполняет "Liquid Tension".
Используемые в песне аккорды можно найти в разделе Как брать аккорды. Аккорды для шестиструнной гитары. Другие песни можно найти на нашем сайте, воспользовавшись алфавитным указателем вверху страницы.


Слушать онлайн Freedom Of Speech


Jordan RudessFreedom Of Speech на Яндекс.Музыке


 
Ошибка в тексте? Выделите ошибку и нажмите Ctrl+Enter