Title : Acid Rain
        Artist : Liquid Tension Experiment 2
Transcribed by : Transcribed By Alessandro Manilii
============================================================================
====

Legend
------

 h  = hammer-on
 p  = pull-off
 b  = bend
 r  = bend release
 /  = slide up/down
 = natural harmonic
[5] = artifical harmonic
 ~  = vibrato
 tr = trill




E|-----------------------------------|---------------------------------|----
---------
B|-----------------------------------|---------------------------------|----
---------
G|-----------------------------------|---------------------------------|----
---------
D|-----------------------------------|---------------------------------|----
---------
A|-----------------------------------|-----------------5p0---7---------|----
---------
E|---7p0-------------7p0-------------|-7p0-----------------7---5p7-----|-7p0
---------
B|-------7p0-5-3-0-0-----7p0-5-3-0-0-|-----7p0-5-3-0-0-------------0-0-|----
-7p0-5-3-




E|---------------------|---------------------------------|------------------
---------
B|---------------------|---------------------------------|------------------
---------
G|---------------------|-------7-----9p7---7-------------|------------------
---------
D|---------------------|-9-7-9---7-9-----9---9-7-9-7-----|------------------
---------
A|---------------------|-----------------------------9-7-|------------------
---------
E|-----7p0-------------|---------------------------------|-7p0-------------7
p0-------
B|-0-0-----7p0-5-3-0-0-|---------------------------------|-----7p0-5-3-0-0--
---7p0-5-
                         Doubled one octave below



E--------|---------------------------------|--------------------------------
-|-------
B--------|---------------------------------|--------------------------------
-|-------
G--------|---------------------------------|--------------------------------
-|-------
D--------|---------------------------------|--------------------------------
-|-------
A--------|-----------------5p0---7---------|--------------------------------
-|-10----
E--------|-7p0-----------------7---5p7-----|-7p0-------------7p0------------
-|----10-
B--3-0-0-|-----7p0-5-3-0-0-------------0-0-|-----7p0-5-3-0-0-----7p0-5-3-0-0
-|-------




E-----------------------------|---------------------------------------|-----
--------
B-----------------------------|-12-----------------12-----------------|-12--
--------
G-----------------------------|----9-11---9-----------9-11---9--------|----9
-11---9-
D--9------7-----5-----4-------|---------9---12-9-9---------9---12-9-9-|-----
----9---
A----9------7-----5-----4-----|---------------------------------------|-----
--------
E------10-----7-----5------5--|---------------------------------------|-----
--------
B-----------------------------|---------------------------------------|-----
--------




E------------------------------|---------------------------------------|----
--------
B---------15-14-12-0---10-12---|-12-----------------12-----------------|-15-
14-12-0-
G--------------------9---------|----9-11---9-----------9-11---9--------|----
--------
D--12-9-9--------------------9-|---------9---12-9-9---------9---12-9-9-|----
--------
A------------------------------|---------------------------------------|----
--------
E------------------------------|---------------------------------------|----
--------
B------------------------------|---------------------------------------|----
--------




E------------------------------|---------------------------------------|----
---------
B----10-----10-----------------|-12-----------------12-----------------|-12-
---------
G--9-----------9------9-11-----|----9-11---9-----------9-11---9--------|----
9-11---9-
D-------9-9------12-9------9-9-|---------9---12-9-9---------9---12-9-9-|----
-----9---
A------------------------------|---------------------------------------|----
---------
E------------------------------|---------------------------------------|----
---------
B------------------------------|---------------------------------------|----
---------




E------------------------------|---------------------------------------|----
--------
B---------15-14-12-0---10-12---|-12-----------------12-----------------|-0-5
p3-0----
G--------------------9---------|----9-11---9-----------9-11---9--------|----
------4-
D--12-9-9--------------------9-|---------9---12-9-9---------9---12-9-9-|----
--------
A------------------------------|---------------------------------------|----
--------
E------------------------------|---------------------------------------|----
--------
B------------------------------|---------------------------------------|----
--------




E-----------------------------------------|-------------------------------|-
--------
B-----------------------------------------|-------------------------------|-
--------
G--0--2--4-2-0-----2--0-------------------|-------------------------------|-
--------
D---------------4--------4--0-------------|-------------------------------|-
--------
A------------------------------7--9-7-5---|-------------------------------|-
--------
E---------------------------------------9-|-7-5--------7-5--------7-5-----|-
7-5-----
B-----------------------------------------|-----0-0--0-----0-0--0-----0-0-|-
----0-0-




E-----------------------|-------------------------------|-------------------
---------
B-----------------------|-------------------------------|-------------------
---------
G-----------------------|-------------------------------|-------------------
---------
D-----------------------|-------------------------------|-------9------7----
-5-----4-
A-----------------------|-------------------------------|-10------9------7--
---5-----
E----7-5--------7-5-----|-7-5--------7-5--------7-5-----|----10-----10-----7
-----5---
B--0-----0-0--0-----0-0-|-----0-0--0-----0-0--0-----0-0-|-------------------
---------




E|-------|-------------------------------|-------------------------------|--
--------
B|-------|-------------------------------|-------------------------------|--
--------
G|-------|-------------------------------|-------------------------------|--
--------
D|-------|-------------------------------|-------------------------------|--
--------
A|-4-----|-7-5--------7-5--------7-5-----|-7-5--------7-5--------7-5-----|-7
-5------
E|----5--|-----9-7--7-----9-7--7-----9-7-|-----9-7--7-----9-7--7-----9-7-|--
---9-7--
B|-------|-------------------------------|-------------------------------|--
--------




E----------------------|-------------------------------|--------------------
--------
B----------------------|-------------------------------|--------------------
--------
G----------------------|-------------------------------|--------------------
--------
D----------------------|-------------------------------|--------------------
--------
A---7-5--------7-5-----|-7-5--------7-5--------7-5-----|--------------------
--7-9---
E-7-----9-7--7-----9-7-|-----9-7--7-----9-7--7-----9-7-|-7-9-7-9-10-7-10-12-
7-----7-
B----------------------|-------------------------------|--------------------
--------




E----------|-------------------------------------|--------------------------
---------
B----------|-------------------------------------|--------------------------
---------
G----------|-------------------------------------|--------------------------
---------
D----------|-------------------------------------|--------------------------
---------
A---9-10---|----------------------7-9-----9-10---|----------------------7-9-
----9-10-
E-7------7-|-7-9-7-9-10-7-10-12-7-----7-7------7-|-7-9-7-9-10-7-10-12-7-----
7-7------
B----------|-------------------------------------|--------------------------
---------




E---|-------------------------------------|---------------------------------
----|---
B---|-------------------------------------|---------------------------------
----|---
G---|-------------------------------------|---------------------------------
----|---
D---|-------------------------------------|---------------------------------
----|---
A---|----------------------7-9-----9-10---|----------------------7-9-----9-1
0---|---
E-7-|-7-9-7-9-10-7-10-12-7-----7-7------7-|-7-9-7-9-10-7-10-12-7-----7-7----
--7-|-7-
B---|-------------------------------------|---------------------------------
----|---




E-----------------------------------|-------------------------------------|-
--------
B-----------------------------------|-------------------------------------|-
--------
G-----------------------------------|-------------------------------------|-
--------
D-----------------------------------|-------------------------------------|-
--------
A--------------------7-9-----9-10---|----------------------7-9-----9-10---|-
--------
E-9-7-9-10-7-10-12-7-----7-7------7-|-7-9-7-9-10-7-10-12-7-----7-7------7-|-
7-9-7-9-
B-----------------------------------|-------------------------------------|-
--------




E-----------------------------|----------|----------|---------|----------|--
-------|-
B-----------------------------|----------|----------|---------|----------|--
-------|-
G-----------------------------|----------|----------|---------|----------|--
-------|-
D-----------------------------|----------|----------|---------|-------4--|-5
-------|-
A--------------7-9-----9-10---|-2--------|-------5--|-7-------|-------4--|-5
-------|-
E-10-7-10-12-7-----7-7------7-|-2--------|-------5--|-7-------|----------|--
-------|-
B-----------------------------|----------|----------|---------|----------|--
-------|-




E|----------|----------|----------|----------|----------|---------|---------
-|-------
B|----------|----------|----------|----------|----------|---------|---------
-|-------
G|----------|----------|----------|----------|----------|---------|---------
-|-------
D|-------7--|----------|-8--------|----------|----------|---------|-------4-
-|-5-----
A|-------7--|-9--------|-8--------|-2--------|-------5--|-7-------|-------4-
-|-5-----
E|----------|-9--------|----------|-2--------|-------5--|-7-------|---------
-|-------
B|----------|----------|----------|----------|----------|---------|---------
-|-------




E---|----------|----------|----------|------------------|-------------------
------|-
B---|----------|----------|----------|------------------|-------------------
------|-
G---|----------|----------|----------|------------------|-------------------
------|-
D---|-------7--|----------|-8--------|------------------|-------------------
------|-
A---|-------7--|-9--------|-8--------|-----------9---5--|-----------9---5--7
--10--|-
E---|----------|-9--------|----------|--7---10----------|--7---10-----------
------|-
B---|----------|----------|----------|------------------|-------------------
------|-




E------------------|-------------------------|-
B------------------|-------------------------|-
G------------------|-------------------------|-
D------------------|-------------------------|-
A-----------9---5--|-----------9---5--7--10--|-
E--7---10----------|--7---10-----------------|-
B------------------|-------------------------|-





E------------------------------------------14--17--15--17-15-14------14-----
--------
B--15--14------14------------------14--15------------------------17------17-
-15--17-
G----------16------16--14------16-------------------------------------------
--------
D--------------------------17-----------------------------------------------
--------
A---------------------------------------------------------------------------
--------
E---------------------------------------------------------------------------
--------
B---------------------------------------------------------------------------
--------


         3plet

E---------------------------------------------|-----------------------------
--------
B--16------15-14------------------------------|-15--14------14--------------
----14--
G------16--------16-14--16--------------------|---------16------16--14------
16------
D---------------------------16--14--12--------|-------------------------17--
--------
A---------------------------------------------|-----------------------------
--------
E---------------------------------------------|-----------------------------
--------
B---------------------------------------------|-----------------------------
--------




E-----14--17--15--17-15-14------19--19----------17----------14--------------
--------
B-15------------------------17------------------------------------------17--
----19--
G---------------------------------------19--18------18--16------16--14------
14------
D---------------------------------------------------------------------------
--------
E---------------------------------------------------------------------------
--------
E---------------------------------------------------------------------------
--------
B---------------------------------------------------------------------------
--------




E-----------|-----------------------------------------14--17--15--17-15-14--
----14--
B-17--15----|-15--14------14------------------14--15------------------------
17------
G-----------|---------16------16--14------16--------------------------------
--------
D-----------|-------------------------17------------------------------------
--------
A-----------|---------------------------------------------------------------
--------
E-----------|---------------------------------------------------------------
--------
B-----------|---------------------------------------------------------------
--------


                    3plet

E--------------------------------------------------------|------------------
----------
B-17--15--17--16------15-14------------------------------|-15--14------14---
----------
G-----------------16--------16-14--16--------------------|---------16------1
6--14-----
D--------------------------------------16--14--12--------|------------------
-------17-
A--------------------------------------------------------|------------------
----------
E--------------------------------------------------------|------------------
----------
B--------------------------------------------------------|------------------
----------




E--------------14--17--15--17-15-14------------------------------14-15-14-15
-17-17-14-
B------14--15------------------------17--14-15-17-14-17-17-14-17------------
----------
G--16-----------------------------------------------------------------------
----------
D---------------------------------------------------------------------------
----------
A---------------------------------------------------------------------------
----------
E---------------------------------------------------------------------------
----------
B---------------------------------------------------------------------------
----------


                            Guitar tacet

E--17--19--17--19--19b21--r----|--------|--------|--------|--------|--------
--------
B------------------------------|--------|--------|--------|--------|--------
--------
G------------------------------|--------|--------|--------|--------|-------1
2-16----
D------------------------------|--------|--------|--------|--------|-12-14--
-----12-
A------------------------------|--------|--------|--------|--------|--------
--------
E------------------------------|--------|--------|--------|--------|--------
--------
B------------------------------|--------|--------|--------|--------|--------
--------




E-----------------------------------|-------12-17-19-15---------------------
----------
B-----12-17-------------------12-17-|---------------------------------------
----------
G-----------------12-16-------------|-12-14-------------18-16-19-18-17-16---
----------
D--14-------12-14-------12-14-------|-------------------------------------19
-18-17-16-
A-----------------------------------|---------------------------------------
----------
E-----------------------------------|---------------------------------------
----------
B-----------------------------------|---------------------------------------
----------




E-|-------------------------15-19-17-15-------------|-----------------------
--------
B-|----15-19-15-17-15----17-------------19-17-15-14-|-17-15-14-17-15-14-----
--------
G-|-------------------18----------------------------|-------------------17-1
6-15-14-
D-|-17----------------------------------------------|-----------------------
--------
A-|-------------------------------------------------|-----------------------
--------
E-|-------------------------------------------------|-----------------------
--------
B-|-------------------------------------------------|-----------------------
--------




E-------------------------------|-------------------------------------------
------|-
B----15----14-12----------------|-------------------------------------------
------|-
G-12----12-------14-12----------|-------------12-------------------------12-
---12-|-
D----------------------16-14-12-|-14-16-14-16----16-14-16-14-12-16-14-16----
16----|-
A-------------------------------|-------------------------------------------
------|-
E-------------------------------|-------------------------------------------
------|-
B-------------------------------|-------------------------------------------
------|-




E|----------------------------------------------|---------------------------
----------
B|----------------------------------------12----|---------------------------
----14----
G|-14-12----12-14-16-14-12-11-12-14-12-14----14-|-12-14-12-11-14-12-14-16-14
-16----16-
D|-------16-------------------------------------|---------------------------
----------
A|----------------------------------------------|---------------------------
----------
E|----------------------------------------------|---------------------------
----------
B|----------------------------------------------|---------------------------
----------




E--------------|-------------------------------------12-14-15-14-12---------
-15-17-19b21-
B--------------|-------------12-14-15-14-12-14-15-15----------------15-17-19
-------------
G--14-16-14-12-|-11-12-14-14------------------------------------------------
-------------
D--------------|------------------------------------------------------------
-------------
A--------------|------------------------------------------------------------
-------------
E--------------|------------------------------------------------------------
-------------
B--------------|------------------------------------------------------------
-------------
                 I' m not really sure about this measure,
                 but if it is played very fast it's quite similar...




E---r-----|-------------------------------------------------|-------12-17-19
-15-------
B---------|-------------------12-17-------------------12-17-|---------------
----------
G---------|-------12-16-------------------12-16-------------|-12-14---------
----18-16-
D---------|-12-14-------12-14-------12-14-------12-14-------|---------------
----------
A---------|-------------------------------------------------|---------------
----------
E---------|-------------------------------------------------|---------------
----------
B---------|-------------------------------------------------|---------------
----------




E--------------------------|-------------------------15-19-17-15------------
-|-------
B--------------------------|----15-19-15-17-15----17-------------19-17-15-14
-|-17-15-
G--19-18-17-16-------------|-------------------18---------------------------
-|-------
D--------------19-18-17-16-|-17---------------------------------------------
-|-------
A--------------------------|------------------------------------------------
-|-------
E--------------------------|------------------------------------------------
-|-------
B--------------------------|------------------------------------------------
-|-------




E--------------------------------------------------------|------------------
----------
B--14-17-15-14----------------15----14-12----------------|------------------
----------
G--------------17-16-15-14-12----12-------14-12----------|-------------12---
----------
D-----------------------------------------------16-14-12-|-14-16-14-16----16
-14-16-14-
A--------------------------------------------------------|------------------
----------
E--------------------------------------------------------|------------------
----------
B--------------------------------------------------------|------------------
----------




E-----------------------|----------------------------------------------|----
---------
B-----------------------|----------------------------------------12----|----
---------
G--------------12----12-|-14-12----12-14-16-14-12-11-12-14-12-14----14-|-12-
14-12-11-
D--12-16-14-16----16----|-------16-------------------------------------|----
---------
A-----------------------|----------------------------------------------|----
---------
E-----------------------|----------------------------------------------|----
---------
B-----------------------|----------------------------------------------|----
---------




E--------------------------------------|------------------------------------
-12-14-15-
B--------------------14----------------|-------------12-14-15-14-12-14-15-15
----------
G--14-12-14-16-14-16----16-14-16-14-12-|-11-12-14-14------------------------
----------
D--------------------------------------|------------------------------------
----------
A--------------------------------------|------------------------------------
----------
E--------------------------------------|------------------------------------
----------
B--------------------------------------|------------------------------------
----------




E--14-12----------15-17-19b21--r-----|-------------|-----------|------------
-|------
B--------15-17-19--------------------|-------------|-----------|------------
-|------
G------------------------------------|-------------|-----------|------------
-|------
D------------------------------------|-------------|-----------|------------
-|------
A------------------------------------|-------------|-----------|------------
-|------
E------------------------------------|-3~-----/5~--|-----/7~---|---/9~------
|-3~---
B------------------------------------|-------------|-----------|------------
-|------




E---------|-----------|-------------|-------------|-----------|-------------
|-------
B---------|-----------|-------------|-------------|-----------|-------------
|-------
G---------|-----------|-------------|-------------|-----------|-------------
|-------
D---------|-----------|-------------|-------------|-----------|-------------
|-------
A---------|-----------|---/7~-------|-------------|-----------|-------------
|-------
E----/5~--|-----/7~---|---/9~------|-3~-----/5~--|-----/7~---|---/9~------
|-3~----
B---------|-----------|-------------|-------------|-----------|-------------
|-------




E--------|-----------|-------------|------------|-
B--------|-----------|-------------|------------|-
G--------|-----------|-------------|------------|-
D--------|-----------|-------------|------------|-
A--------|-----------|---/7~-------|--9~-------|-
E---/5~--|-----/7~---|---/9~------|--7~-------|-
B--------|-----------|-------------|------------|-



E|-------------------------------|-------------------------------|----------
---------
B|-------------------------------|-------------------------------|----------
---------
G|-------------------------------|-------------------------------|----------
---------
D|-------------------------------|-------------------------------|----------
---------
A|-------------------------------|-------------------------------|----------
---------
E|-5-7-----5-7-------------------|-5-7-----5-7-------------------|-5-7-----5
-7-------
B|-----0-0-----0-0-0-0-0-0--0-0--|-----0-0-----0-0-0-0-0-0--0-0--|-----0-0--
---0-0-0-



                                                 The higher notes are played
								 with a 2nd guitar

E--------------|-------------------------------|----------------------------
---|-----
B--------------|-------------------------------|----------------------------
---|-----
G--------------|-------------------------------|----------------------------
---|-----
D--------------|-------------------------------|----------------------------
---|-----
A--------------|-------------------------------|-4-5-----4-5----------------
---|-7-9-
E--------------|-5-7-----7-9-------------------|-5-7-----5-7----------------
---|-5-7-
B--0-0-0--0-0--|-----0-0-----0-0-0-0-0-0--0-0--|-----0-0-----0-0-0-0-0-0--0-
0--|-----




E----------------------------|-------------------------------|--------------
---------
B----------------------------|-------------------------------|--------------
---------
G----------------------------|-------------------------------|-6-7-----6-7--
---------
D----------------------------|-7-9-----7-9-------------------|--------------
---------
A------7-9-------------------|-------------------------------|--------------
---------
E------5-7-------------------|-5-7-----5-7-------------------|-5-7-----5-7--
---------
B--0-0-----0-0-0-0-0-0--0-0--|-----0-0-----0-0-0-0-0-0--0-0--|-----0-0-----0
-0-0-0-0-



                          SOLO
E----------|------------|---------|--------------|-------------|------------
-|------
B----------|------------|---------|--------------|-------------|------------
-|------
G----------|------------|---------|--------------|-------------|------------
-|------
D----------|------------|---------|--------------|-------------|------------
-|------
A----------|-9---9-----|---------|---------/5-4-|-2-0-2-------|------------
-|------
E----------|-7---7-----|---------|-2-3-2--------|------/2-----|-0-2-3-2----
-|------
B--0--0-0--|------------|---------|--------------|-------------|---------3-2
-|-0----




E------|------------------|-------------|--------------|--------------------
---------
B------|------------------|-------------|--------------|--------------------
---------
G------|------------------|-------------|--------------|--------------------
---------
D------|-----------/12-11-|-8-7-9/4-----|--------------|--------------------
---------
A------|------------------|-------------|--------------|--------------------
---------
E------|-0-2-3-2---/10--9-|-7-5-7/2-----|-0-2-3-----2--|-7-5--------7-5-----
---7-5---
B------|------------------|-------------|-------2-3----|-----7-0--0-----7-0-
-0-----7-




E---|-------------------------------|-------------------------------|-------
---------
B---|-------------------------------|-------------------------------|-------
---------
G---|-------------------------------|-------------------------------|-------
---------
D---|-------------------------------|-------------------------------|-------
9------7-
A---|-------------------------------|-------------------------------|-10----
--9------
E---|-7-5--------7-5--------7-5-----|-7-5--------7-5--------7-5-----|----10-
----10---
B-0-|-----7-0--0-----7-0--0-----7-0-|-----7-0--0-----7-0--0-----7-0-|-------
---------



				KEY SOLO
E--------------------||--------------------------------|--------------------
---------
B--------------------||--------------------------------|--------------------
---------
G--------------------||*-------------------------------|--------------------
---------
D------5-----4-------||--------------------------------|--------------------
---------
A--7-----5-----4-----||*-------------------------------|--------------------
---------
E----7-----5------5--||--7-5--------7-5--------7-5-----|-7-5--------7-5-----
---7-5---
B--------------------||------0-0--0-----0-0--0-----0-0-|-----0-0--0-----0-0-
-0-----0-




E---|-------------------------------|-------------------------------|-------
---------
B---|-------------------------------|-------------------------------|-------
---------
G---|-------------------------------|-------------------------------|-------
---------
D---|-------------------------------|-------------------------------|-------
---------
A---|-------------------------------|-------------------------------|-------
---------
E---|-7-5--------7-5--------7-5-----|-7-5--------7-5--------7-5-----|-------
---------
B-0-|-----0-0--0-----0-0--0-----0-0-|-----0-0--0-----0-0--0-----0-0-|-5-3-2-
0--0-5-3-




E----------------|-------------------------------|--------------------------
-----|---
B----------------|-------------------------------|--------------------------
-----|---
G----------------|-------------------------------|--------------------------
-----|---
D----------------|-------------------------------|--------------------------
-----|---
A----------------|-------------------------------|--------------------------
-----|---
E----------------|-------------------------------|--------------------------
-----|---
B-2-0--0-5-3-2-0-|-5-3-2-0--0-5-3-2-0--0-5-3-2-0-|-5-3-2-0--0-5-3-2-0--0-5-3
-2-0-|-5-



                               x 5
E-------------------------------||-------------|------------|-------------|-
-------|-
B-------------------------------||-------------|------------|-------------|-
-------|-
G------------------------------*||-------------|------------|-------------|-
-------|-
D-------------------------------||-------------|------------|-------------|-
-------|-
A------------------------------*||-------------|------------|-------------|-
-------|-
E-------------------------------||-0-2-3-2~---/|-7-5/72~---|-0-2-3-2~--0-|-
-------|-
B--3-2-0--0-5-3-2-0--0-5-3-2-0--||-------------|------------|-------------|-
-------|-




E|-------------|------------|--------------|-------------|----------------|-
--------
B|-------------|------------|--------------|-------------|----------------|-
--------
G|-------------|------------|--------------|-------------|----------------|-
--------
D|-------------|------------|--------------|-------------|----------------|-
--------
A|------------/|-5-4-2------|--------------|-------------|-----------/5-4-|-
2-0-2---
E|-0-2-3-2~----|-------2~---|-0-2-3-----2--|-------------|-0-2-3-2--------|-
-----/2-
B|-------------|------------|-------2-3----|-0----/-12~--|----------------|-
--------




E------|-------------|----------|------------------|-------------|----------
----|---
B------|-------------|----------|------------------|-------------|----------
----|---
G------|-------------|----------|------------------|-------------|----------
----|---
D------|-------------|----------|-----------/12-11-|-8-7-9/4-----|----------
----|---
A------|-------------|----------|------------------|-------------|----------
----|---
E------|-0-2-3-2-----|----------|-0-2-3-2---/10--9-|-7-5-7/2-----|-0-2-3----
-2--|-7p
B------|---------3-2-|-0--------|------------------|-------------|-------2-3
----|---




E--------------------------------|---------------------------------|--------
---------
B--------------------------------|---------------------------------|--------
---------
G--------------------------------|-----------------7-----9---------|--------
---------
D--------------------------------|-------------------7-9---7-9-----|--------
---------
A--------------------------------|---------------------------------|--------
---------
E--0-------------7p0-------------|-7p0-----------------------------|-7p0----
---------
B----7p0-5-3-0-0-----7p0-5-3-0-0-|-----7p0-5-3-0-0-------------0-0-|-----7p0
-5-3-0-0-




E------------------|---------------------------------|----------------------
---------
B------------------|---------------------------------|----------------------
---------
G------------------|-------7-----9p7---7-------------|----------------------
---------
D------------------|-9-7-9---7-9-----9---9-7-9-7-----|----------------------
---------
A------------------|-----------------------------9-7-|----------------------
---------
E--7p0-------------|---------------------------------|-7p0-------------7p0--
---------
B------7p0-5-3-0-0-|---------------------------------|-----7p0-5-3-0-0-----7
p0-5-3-0-




E----|---------------------------------|---------------------------------|--
---------
B----|---------------------------------|---------------------------------|--
---------
G----|-----------------7-----9---------|---------------------------------|--
---------
D----|-------------------7-9---7-9-----|---------------------------------|--
-----9---
A----|---------------------------------|---------------------------------|-1
0------9-
E----|-7p0-----------------------------|-7p0-------------7p0-------------|--
--10-----
B--0-|-----7p0-5-3-0-0-------------0-0-|-----7p0-5-3-0-0-----7p0-5-3-0-0-|--
---------




E-------------------------|-
B-------------------------|-
G-------------------------|-
D-----7-----5-----4-------|-
A-------7-----5-----4-----|-
E--10-----7-----5------5--|-
B-------------------------|-




E|---------------------------------------|----------------------------------
-------|-
B|-12-----------------12-----------------|-12-----------------15-14-12-0---1
0-12---|-
G|----9-11---9-----------9-11---9--------|----9-11---9-------------------9--
-------|-
D|---------9---12-9-9---------9---12-9-9-|---------9---12-9-9---------------
-----9-|-
A|---------------------------------------|----------------------------------
-------|-
E|---------------------------------------|----------------------------------
-------|-
B|---------------------------------------|----------------------------------
-------|-




E|---------------------------------------|----------------------------------
------|-
B|-12-----------------12-----------------|-15-14-12-0---10-----10-----------
------|-
G|----9-11---9-----------9-11---9--------|------------9-----------9------9-1
1-----|-
D|---------9---12-9-9---------9---12-9-9-|-----------------9-9------12-9----
--9-9-|-
A|---------------------------------------|----------------------------------
------|-
E|---------------------------------------|----------------------------------
------|-
B|---------------------------------------|----------------------------------
------|-




E|---------------------------------------|----------------------------------
-------|-
B|-12-----------------12-----------------|-12-----------------15-14-12-0---1
0-12---|-
G|----9-11---9-----------9-11---9--------|----9-11---9-------------------9--
-------|-
D|---------9---12-9-9---------9---12-9-9-|---------9---12-9-9---------------
-----9-|-
A|---------------------------------------|----------------------------------
-------|-
E|---------------------------------------|----------------------------------
-------|-
B|---------------------------------------|----------------------------------
-------|-




E|-12-10--------------------------------------------------|-----------------
--------
B|-------12-12------0-12-10--8--7--10--8--7-----8--7------|-----9--7--------
--------
G|--------------12---------------------------7-------9-7--|-11--------11--7-
-6--4-2-
D|--------------------------------------------------------|-----------------
--------
A|--------------------------------------------------------|-----------------
--------
E|--------------------------------------------------------|-----------------
--------
B|--------------------------------------------------------|-----------------
--------




E|--------------------------------|---------*|--
B|--------------------------------|---------*|--
G|-----4--2-----------------------|---------*|--
D|--5--------5--2-----------------|---------*|--
A|--------------------------------|---------*|--
E|-----------------3--2--0--------|-2-------*|--
B|--------------------------3--2--|-0-------*|--


Текст, аккорды и табулатура для песни "Acid Rain", исполняет "Liquid Tension".
Используемые в песне аккорды можно найти в разделе Как брать аккорды. Аккорды для шестиструнной гитары. Другие песни можно найти на нашем сайте, воспользовавшись алфавитным указателем вверху страницы.


Слушать онлайн Acid Rain


Jordan RudessAcid Rain на Яндекс.Музыке


 
Ошибка в тексте? Выделите ошибку и нажмите Ctrl+Enter