Artist: Linkin Park
Song:   Somewhere I Belong
Album:  Meteora
Tuning: Drop D(D A D G B e)

I know that this is tuned in Drop D a 1/2 step down, but i think the only
reason you need to do this is to do the harmonic before the chorus. I left
that part out, but you can just hit the third fret on the D string instead.

Please rate and Correct this. Thanks. 

Intro:
e|---------------|
B|---------------|
G|----6-6-9-6----|
D|---------------|
A|--8------------|
D|---------------|  8x

e|-----------------------------------------------------------------------|
B|-----------------------------------------------------------------------|
G|-7-7-7-7-8-8-8-8-10-10-10-10-8-8-8-8-7-7-7-7-8-8-8-8-5-5-5-5-3-3-3-3-3~|
D|-7-7-7-7-8-8-8-8-10-10-10-10-8-8-8-8-7-7-7-7-8-8-8-8-5-5-5-5-3-3-3-3-3~|
A|-5-5-5-5-6-6-6-6--8--8--8--8-6-6-6-6-5-5-5-5-6-6-6-6-3-3-3-3-1-1-1-1-1~|
D|-----------------------------------------------------------------------|

Verse:
e|---------------|
B|---------------|
G|----6-6-9-6----|
D|---------------|
A|--8------------|
D|---------------|  16X
                                   
Chorus:
e|------------------------------------|----------------------------------|
B|------------------------------------|----------------------------------|
G|-7-7-7-7-8-8-8-8-10-10-10-10-8-8-8-8|7-7-7-7-8-8-8-8-5-5-5-5-3-3-3-3---|
D|-7-7-7-7-8-8-8-8-10-10-10-10-8-8-8-8|7-7-7-7-8-8-8-8-5-5-5-5-3-3-3-3---|
A|-5-5-5-5-6-6-6-6--8--8--8--8-6-6-6-6|5-5-5-5-6-6-6-6-3-3-3-3-1-1-1-1---|
D|------------------------------------|----------------------------------|
   --------------3X-----------------/

Verse:
e|---------------|
B|---------------|
G|----6-6-9-6----|
D|---------------|
A|--8------------|
D|---------------|  16X

Chorus:
e|------------------------------------|----------------------------------|
B|------------------------------------|----------------------------------|
G|-7-7-7-7-8-8-8-8-10-10-10-10-8-8-8-8|7-7-7-7-8-8-8-8-5-5-5-5-3-3-3-3---|
D|-7-7-7-7-8-8-8-8-10-10-10-10-8-8-8-8|7-7-7-7-8-8-8-8-5-5-5-5-3-3-3-3---|
A|-5-5-5-5-6-6-6-6--8--8--8--8-6-6-6-6|5-5-5-5-6-6-6-6-3-3-3-3-1-1-1-1---|
D|------------------------------------|----------------------------------|
   --------------3X-----------------/

Bridge:
e|-------------------------------------------------------|
B|-------6-6-6-6------6-6-6-6------6-6-6-6------1h2-1----|
G|---3-3-------------------------------------------------|
D|---3-3----------3-3----------6-6----------1-1----------|
A|---1-1----------3-3----------6-6----------1-1----------|
D|----------------3-3----------6-6----------1-1----------|

e|-------------------------------------------------------|
B|-------6-6-6-6------6-6-6-6------6-6-6-6------1h2-1----|
G|---3-3-------------------------------------------------|
D|---3-3----------3-3----------6-6----------1-1----------|
A|---1-1----------3-3----------6-6----------1-1----------|
D|----------------3-3----------6-6----------1-1----------|

e|--------------------4-4-4-4----------------------------|
B|-------6-6-6-6-------------------6-6-6-6------1h2-1----|
G|---3-3-------------------------------------------------|
D|---3-3----------3-3----------6-6----------1-1----------|
A|---1-1----------3-3----------6-6----------1-1----------|
D|----------------3-3----------6-6----------1-1----------|

e|-------------------------------------------------------|
B|-------6-6-6-6------6-6-6-6-------------------1h2-1----|
G|---3-3---------------------------8-8-8-8------------3~-|
D|---3-3----------3-3----------6-6----------1-1-------3~-|
A|---1-1----------3-3----------6-6----------1-1-------1~-|
D|----------------3-3----------6-6----------1-1----------|

e|------------------------------------|----------------------------------|
B|------------------------------------|----------------------------------|
G|-7-7-7-7-8-8-8-8-10-10-10-10-8-8-8-8|7-7-7-7-8-8-8-8-5-5-5-5-3-3-3-3-3~|
D|-7-7-7-7-8-8-8-8-10-10-10-10-8-8-8-8|7-7-7-7-8-8-8-8-5-5-5-5-3-3-3-3-3~|
A|-5-5-5-5-6-6-6-6--8--8--8--8-6-6-6-6|5-5-5-5-6-6-6-6-3-3-3-3-1-1-1-1-1~|
D|------------------------------------|----------------------------------|
   --------------5X-----------------/

Outro:
e|-------------------------------------|
B|-------------------------------------|
G|---3---3-3-3-3-3-3-3-3-3-------------|
D|---3---3-3-3-3-3-3-3-3-3-------------|
A|---1---1-1-1-1-1-1-1-1-1-------------|
D|-------------------------------------|  4X


Текст, аккорды и табулатура для песни "Somewhere I Belong (ver 8)", исполняет "Linkin Park".
Используемые в песне аккорды можно найти в разделе Как брать аккорды. Аккорды для шестиструнной гитары. Другие песни можно найти на нашем сайте, воспользовавшись алфавитным указателем вверху страницы.


 
Ошибка в тексте? Выделите ошибку и нажмите Ctrl+Enter