Intro
e----------------------------------  -----
b----------------------------------  -----
g--4--4-----5--5-----7-7-----4--4--  --4-4
d--4--4-----6--6-----6-6-----0--0--  --2-0
a----------------------------------  -----
e----------------------------------  -----

Part of intro/Verses
e-----2-----5-2-----2-----5-2--| R |-2~~~~~~~
b--0------0-------0-----0------| E |-0~~~~~~~
g------------------------------| P |---------
d------------------------------| E |---------
a------------------------------| A |---------
e------------------------------| T |---------

Chorus
e-------------------------------------------------------------
b-------------------------------------------------------------
g----------------7-7-7-7-7-7-7--------------------------------
d-9-9-9-9-9-9-9--7-7-7-7-7-7-7--5-5-5-5-5-5-5--7-7-7-7-7-7-7--
a-9-9-9-9-9-9-9--5-5-5-5-5-5-5--5-5-5-5-5-5-5--7-7-7-7-7-7-7--
e-7-7-7-7-7-7-7-----------------3-3-3-3-3-3-3--5-5-5-5-5-5-5--

(Cont.)
e-----------------------------------------------------------
b-----------------------------------------------------------
g----------------7-7-7-7-7-7-7------------------------------
d-9-9-9-9-9-9-9--7-7-7-7-7-7-7--7-7-7-7-7-7-7--5-5-5-5-5-5-5
a-9-9-9-9-9-9-9--5-5-5-5-5-5-5--7-7-7-7-7-7-7--5-5-5-5-5-5-5
e-7-7-7-7-7-7-7-----------------5-5-5-5-5-5-5--3-3-3-3-3-3-3

Bridge
e------------------------------------------------------
b------------------------------------------------------
g--------11-11---------11-11---------11-11-------------
d--4-4-----------4-4-----------4-4-----------4-4--0h2--
a--4-4---9--9----4-4---9--9----4-4---9--9----4-4------4
e--2-2-----------2-2-----------2-2-----------2-2-------

2sd guitar
e-----------------------------------------------------
b-----------------------------------------------------
g-----------------------------------------------------
d--------0h2------------------------------------------
a------------4---4-4--------4p2-0-2-------------------
e--2-2-----------------------------------2-2-2-2-2-2-2

Between verses and Chorus
e-------------------------
b-------------------------
g-------------------------
d-------------------------
a-------------------------
e--7-7-7-7-7-7-7-7-7-7-7-7

Somewhere I Belooooooonnnnng
e--------------------------------------------------
b--------------------------------------------------
g--------------------------------------------------
d-7--9-9-9-9-9-9-9-9-9-9-9---------9-9-9-9-9--10-10
a-7--9-9-9-9-9-9-9-9-9-9-9---------9-9-9-9-9--10-10
e-5--7-7-7-7-7-7-7-7-7-7-7---------7-7-7-7-7--8--8-


Текст, аккорды и табулатура для песни "Somewhere I Belong Live", исполняет "Linkin Park".
Используемые в песне аккорды можно найти в разделе Как брать аккорды. Аккорды для шестиструнной гитары. Другие песни можно найти на нашем сайте, воспользовавшись алфавитным указателем вверху страницы.


 
Ошибка в тексте? Выделите ошибку и нажмите Ctrl+Enter