Intro:
e------------------------
b------------------------
G------------------------
D------------------------
A----5--0--7-------------
E-0---------8--7--0--3---

 Then:

e-------------------
b-------------------
G--------9--------5-
D--0-0-0-9--------5-
A--0-0-0-7-8-7--0-3-
E--0-0-0---8-7--0---

 Break:

G---------
D-5-5-xx-x
A-5-5-xx-x
E-5-5-xx-x


В припеве не уверен:
                                          На последний
                                             раз    
D-0--0--0-12--10-10-7-7--9-9-5-5--7-7-3333-|33333
A-0--0--0-12--10-10-7-7--9-9-5-5--7-7-3333-|33333
E-0--0--0-12--10-10-7-7--9-9-5-5--7-7-3333-|33333


I cannot take this anymore
I´m saying everything I´ve said before
All these words they make no sense
I find bliss in ignorance
Less I hear the less you´ll say
But you´ll find that out anyway
Just like before...
Everything you say to me
Takes me one step closer to the edge
And I´m about to break
I need a little room to breathe
Cause I´m one step closer to the edge
And I´m about to break
I find the answers aren´t so clear
Wish I could find a way to disappear
All these thoughts they make no sense
I find bliss in ignorance
Nothing seems to go away
Over and over again
shut up when I´m talking to you


Текст, аккорды и табулатура для песни "One Step Closer", исполняет "Linkin Park".
Используемые в песне аккорды можно найти в разделе Как брать аккорды. Аккорды для шестиструнной гитары. Другие песни можно найти на нашем сайте, воспользовавшись алфавитным указателем вверху страницы.


 
Ошибка в тексте? Выделите ошибку и нажмите Ctrl+Enter