I noticed everybody tabbed Linkin Park songs in Dropped D flat or Drop C or crap
like that... Cracked my head to figure out Linkin Park songs in normal tuning
(thats what everybody wanted right?)
so here is is, Figure 09 By Linkin Park

Regular Tuning

Tabbed By:  Killl_Roy
Linkin Park
Figure 09

Intro
e---------------------------------------------------------------------]
B---------------------------------------------------------------------]
G---------------------------------------------------------------------]
D---------------------------------------------------------------------]
A--4---4---6---4---4---6---4---4---6---4h5---4h5---4h5---4h5----------]
E---------------------------------------------------------------------]X2

e---------------------------------------------------------------------]
B---------------------------------------------------------------------]
G---------------------------------------------------------------------]
D---x---6---2----x---6---2------x---6---2-----------------------------]
A---4---4---2----4---4---2------4---4---2----4h5---4h5---4h5---4h5----]
E---4-------0----4-------0------4-------0----4h5---4h5---4h5---4h5----]X2

e---------------------------------------------------------------------]
B---------------------------------------------------------------------]
G---------------------------------------------------------------------]
D---x---6----x---6-------x---6----------------------------------------]
A---4---4----4---4-------4---4-----4h5---4h5---4h5---4h5--------------]
E---4--------4-----------4---------4h5---4h5---4h5---4h5--------------]X2

e---------------------------------------------------------------------]
B---------------------------------------------------------------------]
G---------------------------------------------------------------------]
D---x---6---2----x---6---2----x---6---2-------------------------------]
A---4---4---2----4---4---2----4---4---2---4h5---4h5---4h5---4h5-------]
E---4-------0----4-------0----4-------0---4h5---4h5---4h5---4h5-------]X2

e---------------------------------------------------------------------]
B---------------------------------------------------------------------]
G---------------------------------------------------------------------]
D---x---x-------x---x-------x---x-------x-----------------------------]
A---4---4---7---4---4---7---4---4---7---4-----------------------------]
E---4---4---5---4---4---5---4---4---5---4-----------------------------]


Chorus
e----------------------------------------------------------------------]
B----------------------------------------------------------------------]
G----------------------------------------------------------------------]
D---x-----7----x----2---4----6-----------------------------------------]
A---4-----7----4----2---4----6-----------------------------------------]
E---4-----x----4--------x----x-----------------------------------------]X3

e----------------------------------------------------------------------]
B----------------------------------------------------------------------]
G----------------------------------------------------------------------]
D------x---7---x---2---6---x-------------------------------------------]
A------x---7---4---2---6---5-------------------------------------------]
E------4---x---4---x-------5-------------------------------------------]X1

As you can see the rhythm is not tabbed because ive not seen a tab with rhythm before
Anyway if you are a Linkin Park fan you would have
 figured it out..hey whats the song name again? =P

e----------------------------------------------------------------------]
B----------------------------------------------------------------------]
G----------------------------------------------------------------------]
D---x---6---2----x---6---2----x---6---2--------------------------------]
A---4---4---2----4---4---2----4---4---2----4h5---4h5---4h5---4h5-------]
E---4-------0----4-------0----4-------0----4h5---4h5---4h5---4h5-------]X2

e----------------------------------------------------------------------]
B----------------------------------------------------------------------]
G----------------------------------------------------------------------]
D----x---6-----x---6-----x---6-----------------------------------------]
A----4---4-----4---4-----4---4-----4h5---4h5---4h5---4h5---------------]
E----4---------4---------4---------4h5---4h5---4h5---4h5---------------]X2
  
e----------------------------------------------------------------------]
B----------------------------------------------------------------------]
G----------------------------------------------------------------------]
D---x---6---2----x----6---2----x---6---2-------------------------------]
A---4---4---2----4----4---2----4---4---2---4h5---4h5---4h5---4h5-------]
E---4-------0----4--------0----4-------0---4h5---4h5---4h5---4h5-------]X2

e----------------------------------------------------------------------]
B----------------------------------------------------------------------]
G----------------------------------------------------------------------]
D----x---x-------x---x-------x---x-------x-----------------------------]
A----4---4---7---4---4---7---4---4---7---4-----------------------------]
E----4---4---5---4---4---5---4---4---5---4-----------------------------]


Chorus
e----------------------------------------------------------------------]
B----------------------------------------------------------------------]
G----------------------------------------------------------------------]
D----x-----7-----x-----2-----4-----6-----------------------------------]
A----4-----7-----4-----2-----4-----6-----------------------------------]
E----4-----x-----4-----x-----x-----x-----------------------------------]X3

e----------------------------------------------------------------------]
B----------------------------------------------------------------------]
G----------------------------------------------------------------------]
D----x-----7-----x------2------6------x--------------------------------]
A----4-----7-----4------2------6------5--------------------------------]
E----4-----x-----4------x------x------5--------------------------------]X1

Pre Bridge
e----------------------------------------------------------------------]
B----------------------------------------------------------------------]
G----------------------------------------------------------------------]
D---x----7-----x-----2----6-----x-----x-----x-----x--------------------]
A---4----7-----4-----2----6----4h5---4h5---4h5---4h5-------------------]
E---4----x-----4-----x----x----4h5---4h5---4h5---4h5-------------------]X1

e----------------------------------------------------------------------]
B----------------------------------------------------------------------]
G----------------------------------------------------------------------]
D----------------------------------------------------------------------]
A------4---4---6---4---6----4----4----6----4h5---4h5---4h5---4h5-------]
E----------------------------------------------------------------------]

e----------------------------------------------------------------------]
B----------------------------------------------------------------------]
G----------------------------------------------------------------------]
D----------------------------------------------------------------------]
A--4----4----6-----4-----4-----6----4----4----6---4h5--4h5--4h5--4h5---]
E-------------------------------------------------4h5--4h5--4h5--4h5---]

Bridge
e----------------------------------------------------------------------]
B----------------------------------------------------------------------]
G------------------------10--------------------------------------------]
D---x---x-----x---x---x---8--------------------------------------------]
A---5---4-----4---5---7---8---5---4----4---5---7------7---5---4--------]
E---5---4-----4---5---7---8---5---4----4---5---7------7---5---4--------]

e----------------------------------------------------------------------]
B----------------------------------------------------------------------]
G--------------10------------------------------------------------------]
D---------------8------------------------------------------------------]
A---4---5---7---8---5---4------4---5---7-----5---4---------------------]
E---4---5---7---8---5---4------4---5---7-----5---4---------------------]

e----------------------------------------------------------------------]
B----------------------------------------------------------------------]
G-----------------------10---------------------------------------------]
D--------------------x---8---------------------------------------------]
A---5---4----4---5---7---8---5---4---4---5---7----7---5---4------------]
E---5---4----4---5---7---8---5---4---4---5---7----7---5---4------------]

e----------------------------------------------------------------------]
B----------------------------------------------------------------------]
G--------------10------------------------------------------------------]
D---------------8------------------------------------------------------]
A---4---5---7---8---5---4------4---5---7-----7---7---------------------]
E---4---5---7---8---5---4------4---5---7-----7---7---------------------]

e----------------------------------------------------------------------]
B----------------------------------------------------------------------]
G----------------------------------------------------------------------]
D---x----7----x-----2------4-----6-------------------------------------]
A---4----7----4-----2------4-----6-------------------------------------]
E---4----x----4-----x------x-----x-------------------------------------]X3

e----------------------------------------------------------------------]
B----------------------------------------------------------------------]
G----------------------------------------------------------------------]
D------x-----7----x-----2-------6-------x------------------------------]
A------4-----7----4-----2-------6-------5------------------------------]
E------4-----x----4-----x-------x-------5------------------------------]X1

-----------------------------------------------------------------------]
B----------------------------------------------------------------------]
G----------------------------------------------------------------------]
D------x--------7--------x---------2---------4---------6---------------]
A------4--------7--------4---------2---------4---------6---------------]
E------4--------x--------4---------x---------x---------x---------------]X3

e----------------------------------------------------------------------]
B----------------------------------------------------------------------]
G----------------------------------------------------------------------]
D--x--7--x--2--6---x---------------------------------------------------]
A--4--7--4--2--6---5---4h5----4h5----4h5----4h5---4h5---4h5--5--5--5--5]
E--4--x--4--x--x---5---4h5----4h5----4h5----4h5---4h5---4h5--5--5--5--5]


Long Live Music.[Peace]


Текст, аккорды и табулатура для песни "Figure 09", исполняет "Linkin Park".
Используемые в песне аккорды можно найти в разделе Как брать аккорды. Аккорды для шестиструнной гитары. Другие песни можно найти на нашем сайте, воспользовавшись алфавитным указателем вверху страницы.


 
Ошибка в тексте? Выделите ошибку и нажмите Ctrl+Enter