Song       : Crawling
Artist     : Linkin Park
Album      : Hybrid Theory
Tuning     : low to high Db Ab Db Gb Bb Eb (drop D)
Transcribed: Marko R                                   

Intro:


       |--------------|---20----17--|-------------------------------|
       |--------------|-------------|-20----18----17----18----------|
       |----------19--|-------------|------------------------19-----|
       |--------------|-------------|-------------------------------|
       |--------------|-------------|-------------------------------|
       |--------------|-------------|-------------------------------|
       |                                                            |
       |--------------|-------------|-------------------------------|
 bass  |-----------3--|------------3|-------------------------------|
       |-1------------|-------------|-----5-----------------3-------|
       |--------------|-3-----------|-------------------------------| 


Right before the chorus guitar 1 plays
 

       |-----------------------|
       |-----------------------|
       |-----------------------|
       |--10----10-10-m-10-----|
       |-----------------------|
       |-----------------------|
 
                           m = mute
real fast

Chorus:

There are 2 guitars playing in the chorus:
The firtst plays this with dist and the second with heavy dist.

        D5               Bb5              F5               C5          A5 
       |----------------|----------------|----------------|---------------|
       |----------------|----------------|----------------|---------------|
 Gtr 1 |-11--11--11--11-|-5---5---5---5--|-10--10--10--10-|-9---9---9--12-|
       |-x---x---x---x--|-x---x---x---x--|-x---x---x---x--|-x---x---x--x--|                             |-9---9---9---9--|-3---3---3---3--|-8---8---8---8--|-7---7---7--10-|
       |----------------|----------------|----------------|---------------| 
       |note: strum each note 16 times               |                            
       |                                                                  | 
       |                                                                  | 
       |                                                                  | 
       |----------------|----------------|----------------|---------------|
       |----------------|----------------|----------------|---------------|
 Gtr 2 |----------------|----------------|----------------|---------------|
       |-0--------------|-8--------------|-3--------------|-10----------7-|
       |-0--------------|-8--------------|-3--------------|-10----------7-|
       |-0--------------|-8--------------|-3--------------|-10----------7-| 
 
       note: slide above to the next note

        Crawling in my   skin     these wounds they will not heal
        Fer is how I     fall        confusing     what is real

In the chorus thw Bass plays te same notes as in the verse so go see the verse for chorus 
notes.

Play intro again.


Verse:

The bass plays the verses but you can play it as the low notes off guitar 2's chorus notes 
or like the bass would play it(below), its exactly the same just diffrent posisions.      


       
        D5               Bb5              F5               C5
       |----------------|----------------|----------------|---------------|
 bass  |----------------|----------------|----------------|---------------|
       |----------------|----------------|----------------|---------------|
       |-0--------------|-1--------------|-3--------------|-3-------------| 

    D5                              Bb5                       F5               C5 
   Theres something inside me that pulls beneath the surface,      consuming,     confusing
   This lack of selfcontrol       I fear is never ending,          controlling    I cant seem






Pre Chorus: (still just bass)

         Bb5               C5              D5        C5     F5
       |-----------------|----------------|----------------|---------------|
 bass  |----------3------|----------3-----|----------------|---------------|
       |-1---------------|-3--------------|-5--------3-----|---------0-----|
       |-----------------|----------------|----------------|-3-------------|
       
       to find myself again        my walls are closing in (Without a sense off confidence I'm convinced
                                                            that there's just to much pressure 
to take) 

      Bb5               C5              D5        C5     F5
       |-----------------|----------------|----------------|---------------|
 bass  |----------3------|----------3-----|----------------|---------------|
       |-1---------------|-3--------------|-5--------3-----|---------------|
       |-----------------|----------------|----------------|-3----3/7-7-7--|
       
       Ive felt this way before so insecure...............................





Chorus:

There are 2 guitars playing in the chorus:
The firtst plays this with dist

        D5               Bb5              F5               C5          A5 
       |----------------|----------------|----------------|---------------|
       |----------------|----------------|----------------|---------------|
 Gtr 1 |-11--11--11--11-|-5---5---5---5--|-10--10--10--10-|-9---9---9--12-|
       |-x---x---x---x--|-x---x---x---x--|-x---x---x---x--|-x---x---x--x--|
       |-9---9---9---9--|-3---3---3---3--|-8---8---8---8--|-7---7---7--10-|
       |----------------|----------------|----------------|---------------| 
       |note: strum fast in 16th notes (each note 16 times)               |                            
       |                                                                  | 
       |                                                                  | 
       |                                                                  | 
       |----------------|----------------|----------------|---------------|
       |----------------|----------------|----------------|---------------|
 Gtr 2 |----------------|----------------|----------------|---------------|
       |-0--------------|-8--------------|-3--------------|-10----------7-|
       |-0--------------|-8--------------|-3--------------|-10----------7-|
       |-0--------------|-8--------------|-3--------------|-10----------7-| 
 
       note: slide above to the next note

        Crawling in my   skin     these wounds they will not heal
        Fer is how I     fall        confusing     what is real

Verse 2:

Discomfort endlessly pulled itself upon me,        distracting,     reacting
Against my will I stand beside my own reflection,  its haunting,    how I cant seem to..


Pre Chorus


         Bb5               C5              D5        C5     F5
       |-----------------|----------------|----------------|---------------|
 bass  |----------3------|----------3-----|----------------|---------------|
       |-1---------------|-3--------------|-5--------3-----|---------0-----|
       |-----------------|----------------|----------------|-3-------------|
       
       to find myself again        my walls are closing in (Without a sense off confidence 
I'm convinced
                                                            that there's just to much pressure
to take) 

      Bb5               C5              D5        C5     F5
       |-----------------|----------------|----------------|---------------|
 bass  |----------3------|----------3-----|----------------|---------------|
       |-1---------------|-3--------------|-5--------3-----|---------------|
       |-----------------|----------------|----------------|-3----3/7-7-7--|
       
       Ive felt this way before so insecure...............................


Play Chorus again x 2

The outro is the chorus with the intro over it.


Текст, аккорды и табулатура для песни "Crawling (ver 9)", исполняет "Linkin Park".
Используемые в песне аккорды можно найти в разделе Как брать аккорды. Аккорды для шестиструнной гитары. Другие песни можно найти на нашем сайте, воспользовавшись алфавитным указателем вверху страницы.


 
Ошибка в тексте? Выделите ошибку и нажмите Ctrl+Enter