LINKIN PARK - By Myself (As heard on Live in Texas DVD)
TUNING: Drop D, down 1/2 step

Intro (x4)
Eb|--------------------------------------------------------------------------
Bb|10---10-----12---12-----------10-----------12----|------------------------
Gb|---9----9-9----9----9-9-10-10----10-10-9-9----9-9|------------------------
Db|--------------------------------------------------------------------------
Ab|--------------------------------------------------------------------------
Db|--------------------------------------------------------------------------

Prechorus
Eb|--------------------------------------------------------------------------
Bb|--------------------------------------------------------------------------
Gb|--------------------------------------------------------------------------
Db|1-1-1-1-7-7|1-1-1-1-7-7|1-1-1-1-7-7|1-1-1-1-7-7|--------------------------
Ab|1-1-1-1-7-7|1-1-1-1-7-7|1-1-1-1-7-7|1-1-1-1-7-7|--------------------------
Db|1-1-1-1-7-7|1-1-1-1-7-7|1-1-1-1-7-7|1-1-1-1-7-7|--------------------------
  (Myself!! I ask why? But in my mind I find...)
  (Don't you KNOW!! I can't tell you how to...)

Verse
Eb|--------------------------------------------------------------------------
Bb|--------------------------------------------------------------------------
Gb|--------------------------------------------------------------------------
Db|1-1-1-1-1-1-1|------------------------------------------------------------
Ab|1-1-1-1-1-1-1|------------------------------------------------------------
Db|1-1-1-1-1-1-1|------------------------------------------------------------
   ('Cause I can't hold on when I'm...)
   (How do you think, I've lost so much...)
(Intro also playable as a verse)

Repeat Prechorus

Chorus (x4)
Eb|--------------------------------------------------------------------------
Bb|--------------------------------------------------------------------------
Gb|--------------------------------------------------------------------------
Db|7--3-3-x-x-x-0-0-x-x-x|---------------------------------------------------
Ab|7--3-3-x-x-x-0-0-x-x-x|---------------------------------------------------
Db|7--3-3-x-x-x-0-0-x-x-x|---------------------------------------------------
  (I can't hold on...)

No guitar as verse repeats
Repeat Prechorus
Repeat Chorus (x4)
Repeat Prechorus (x2)

Bridge
Eb|--------------------------------------------------------------------------
Bb|--------------------------------------------------------------------------
Gb|--------------------------------------------------------------------------
Db|7-7|1-1-1-1-7-7|1-1-1-1-7-7|1-1-1-1-7-7|----------------------------------
Ab|7-7|1-1-1-1-7-7|1-1-1-1-7-7|1-1-1-1-7-7|----------------------------------
Db|7-7|1-1-1-1-7-7|1-1-1-1-7-7|1-1-1-1-7-7|----------------------------------
  (Don't you KNOW!! I can't tell you...)

Repeat Prechorus
Repeat Chorus (x7)

Outro
Eb|--------------------------------------------------------------------------
Bb|--------------------------------------------------------------------------
Gb|--------------------------------------------------------------------------
Db|7--3-3-x-x-x-0-0|---------------------------------------------------------
Ab|7--3-3-x-x-x-0-0|---------------------------------------------------------
Db|7--3-3-x-x-x-0-0|---------------------------------------------------------
 (With thoughts of failure seeking)


Текст, аккорды и табулатура для песни "By Myself Live", исполняет "Linkin Park".
Используемые в песне аккорды можно найти в разделе Как брать аккорды. Аккорды для шестиструнной гитары. Другие песни можно найти на нашем сайте, воспользовавшись алфавитным указателем вверху страницы.


 
Ошибка в тексте? Выделите ошибку и нажмите Ctrl+Enter