SONG: WHY DO PRETTY GIRLS CARRY GUNS
BAND: LINK 80
TABBED BY: BEN MEYER    [email protected]



VERSE:

G:-------------------------------------------------
D:-------------------------------------------------
A:-3-3-3-3-3-3-------------5-5-5-5-5-5-7-7-7-7-7-7-
E:-------------5-5-5-5-5-5-------------------------


CHORUS:

G:-------------------3-5--------*------------------------
D:---------------3-5-----3-5----*------------------------
A:-3-3-3-3-3-3-5-------------5-3*-3-3-3-3-3-3-5----------
E:------------------------------*---------------4-3-2-1-0


FAST PUNK PART:

G:-------------------------------
D:-------------------------------
A:-3-3-3-5-5-5-7-7-7-------------
E:-------------------5-5-5-5-5-5-


Текст, аккорды и табулатура для песни "Why Do Pretty Girls Carry Guns", исполняет "Link 80".
Используемые в песне аккорды можно найти в разделе Как брать аккорды. Аккорды для шестиструнной гитары. Другие песни можно найти на нашем сайте, воспользовавшись алфавитным указателем вверху страницы.


 
Ошибка в тексте? Выделите ошибку и нажмите Ctrl+Enter