Limp Bizkit - Trust?
Tabbed By: Ze Tab Theif!
EMail: [email protected]


Tuning: tune your guitar down one and a half steps (C#,F#,B,E,G#,C#) 
    
 INTRO:                 3 times   
  
   C#|----------------|-12-12-12-------| 
   G#|-10-9-10-9-9-10-|-10----10-10/11-| 
    E|-10-9-10-9-9-10-|----------------| 
    B|----------------|----------------| 
   F#|----------------|----------------| 
   C#|----------------|----------------|        

 CHORUS:           3 times  
   
   C#|-------------|----------------|     
   G#|-------------|----------------|  
    E|-------------|----------------|      
    B|-------------|----------------| 
   F#|-------------|----------------|    
   C#|-1-0-1-0-0-1-|-/5-0-5-0-0-6-0-|  

     VERSE:  
  
   C#|-------------------------|    
   G#|-------------------------|  
    E|-------------------------|     
    B|-------------------------|  
   F#|-------------------------|     
   C#|-0h1p0-0h1p0-0h1p0-0h1p0-|    

     BRIDGE:  

   C#|----------------------|    
   G#|----------------------|  
    E|----------------------|     
    B|-3-2--2-6-5-4-3---3-2-| 
   F#|----------------------|    
   C#|----------------------| 

   C#|-------------|    
   G#|-------------|     
    E|-------------|  
    B|-2-3-2-3-2-2-|     
   F#|-------------|     
   C#|-------------|  

   C#|------------------------------|    
   G#|------------------------------|  
    E|------------------------------| bracket denotes harmonic 
    B|------------------------------|    
   F#|------------------------------| 
   C#|-1-0-(3)--0-1-0-1-0-0---0-1-0-|


Текст, аккорды и табулатура для песни "Trust", исполняет "Limp Bizkit".
Используемые в песне аккорды можно найти в разделе Как брать аккорды. Аккорды для шестиструнной гитары. Другие песни можно найти на нашем сайте, воспользовавшись алфавитным указателем вверху страницы.


 
Ошибка в тексте? Выделите ошибку и нажмите Ctrl+Enter