-------------------------------------------------------------------------------
			     sanitarium- limp bizkit
-------------------------------------------------------------------------------
Tabbed by:cuonting on me
Email:[email protected]

Tuning:C# F A# E G# c#
=HARMONIC
intro
|---------------3---2-------------2-2h3-|-------------  ---|
|-----------------0---------------0-0---|-------------  ---|
|-----------------------------------------------|-----------------x3---|
|-----------------------------------------------|-----------------  -------|
|-----------------------------------------------|-----------------  -------|
|-0-------------------------0-------------------|--0--------------  -0-----|

|-------------------------------------------------------|
|-------------------------------------------------------|
|-------0-------0-------0-------------------------------|
|-----4-------5-------7-------0-------------------------|x2
|---2-------3-------5-------4--------2------------------|
|-0-------0-------0-------5------5-3---3-5--------------|
verse 1
|-------------------------------------------------------------||
|-------------------------------------------------------------||
|------0-------0-------0--------------------------------------||
|----4-------5-------7--------0-------------------------------||
|--2-------3-------5--------4---4-----------------------------||
|0-------0-------0--------5-----------------------------------||
verse 2                                                        |X2
|-------------------------------------------------------------||
|-------------------------------------------------------------||
|------0-------0-------0--------------------------------------||
|----4-------5-------7-------0--------------------------------||
|--2-------3-------5-------4-------2--------------------------||
|0-------0-------0-------5-----5-3---3-5----------------------||
pre-chorus
|--------------------------|----------------------------------------|
|--------------------------|----------------------------------------|
|---44----55----77---------|----44----55----77----------------------|
|---44----55----77--7777---|----44----55----77-7777--5-5-5----------|
|---22----33----55--7777---|----22----33----55-7777--5-5-5----------|
|00----00----00-----5555---|-00----00----00----5555--3-3-3----------|
chorus
|----------------------------------------------------------------|
|----------------------------------------------------------------|
|--------5/4-5/4----------------------5/4-5/4--------------------|
|---5/4—-5/4-5/4--2-0-------------5/4-5/4-5/4—-5/4—4/3-----------|
|---5/4--3/2-3/2------3-2-0-------5/4-3/2-3/2—-5/4—4/3-----------|
|-0—3/2---------------------3-2-0—3/2----------3/2—2/1-----------|

|---------------------------------------------------------|
|---------------------------------------------------------|
|--------5/4-5/4----------------------5/4-5/4-------------|
|---5/4—-5/4-5/4--2-0-------------5/4-5/4-5/4—------------|
|---5/4--3/2-3/2------3-2-0-------5/4-3/2-3/2—------------|
|-0—3/2---------------------3-2-0—3/2---------------------|

intro x2
verse
pre-chorus
chorus
fred speaks with the people

|---------------------------------------------------------------------------|
|---------------------------------------------------------------------------|
|---------------------------------------------------------------------------|
|-                           PM                                            -|
|-                                                                         -|
|-0000000000000000000000000000000000000000000000000000000000000000000000000-|

|-----------------------------------------------------|
|-----------------------------------------------------|
|-----------------------------------------------------|
|-----------------------------------------------------|X4
|-----------------------------------------------------|
|-0-2-0-3-00000000-0-2-0-3-0-2-0-3-00000000-----------|
heavy part
|------------------------------------------|
|------------------------------------------|
|-------77-77-------55-55-44-44------------|
|-22-22-77-77-33-33-55-55-44-44------------|
|-22-22-55-55-33-33-33-33-22-22------------|
|-00-00-------11-11------------------------|

|---------------------------------------------------------------------------|
|---------------------------------------------------------------------------|
|----7-----5---------5/4-5/4----------------------5/4-5/4-------------------|
|-2--7--3--5-----5/4-5/4-5/4--2-0-------------5/4-5/4-5/4—-5/4—4/3----------|
|-2--5--3--3-----5/4-3/2-3/2------3-2-0-------5/4—3/2-3/2—-5/4—4/3----------|
|-0-----1------0-3/2--------------------3-2-0-3/2----------3/2—2/1----------|
intro end


Текст, аккорды и табулатура для песни "Sanitarium", исполняет "Limp Bizkit".
Используемые в песне аккорды можно найти в разделе Как брать аккорды. Аккорды для шестиструнной гитары. Другие песни можно найти на нашем сайте, воспользовавшись алфавитным указателем вверху страницы.


 
Ошибка в тексте? Выделите ошибку и нажмите Ctrl+Enter