Song - Re-arranged
Artist - Limp Bizkit
Tuning - Standard, but Wes Borland tunes his guitar lower.
Tabbed by - Steel Picker        [email protected] for questions/comments.
Note: During the heavy Bridge, the part where Fred sings 'You think that everybody, is the same', make sure you play clear and loud.

Intro-Bass part
Repeat through out Verse
E-------------------------------------------------------------------------------------------------------------------
B-------------------------------------------------------------------------------------------------------------------
G-------------------------------------------------------------------------------------------------------------------
D------------------------------------------------------------2------------------------------------------------------
A-------------------7-----5~~---5h7p4~-----4h5p0--2---------------------------------------------------------
E------0--------7---------------------------------------------------------------------------------------------------
	mp
Verse--Guitar
Repeat 
E------------------------------------------------------------------------------------------------------------------
B--------5----------5------------5------------5-----------5----------5------------------------------------------
G-----------6-6-6------6-6-6------6-6-6-------6-6-6------6-6-66----6-6-6----------------------------------
D------------------------------------------------------------------------------------------------------------------
A------------------------------------------------------------------------------------------------------------------
E------------------------------------------------------------------------------------------------------------------
	P


E-------------------5-------------5-------------5------------5-------------5------------------------------------
B---------5-----------5--------------5------------5------------5-------------5----------------------------------
G------------6-6-6------6-6-6---------6-6-6-------6-6-6-------6-6-6---------6-6-6-------------------------
D------------------------------------------------------------------------------------------------------------------
A------------------------------------------------------------------------------------------------------------------
E------------------------------------------------------------------------------------------------------------------

Chorus/Pre-Bridge

E------------------------------------------------------------------------------------------------------------------
B------------------------------------------------------------------------------------------------------------------
G------------------------------------------------------------------------------------------------------------------
D------------------------------------------------------------------------------------------------------------------
A--4--4--4--4--4--4--4--4--2--2--2--2--2--2--2--2--7--7--7--7--7--7--7--7--8--8--8--8--8--8--8-8-E------------------------------------------------------------------------------------------------------------------

Bridge
Repeat until louder part
E------------------------------------(7)~~----------(9)~~--------9~------7--7--7--7---------9--9--9-9----
B------------------------------------------------------------------------------------------------------------------
G-----------8---9~---8h9~~---8-----------8--9----------8--9------9--8--------------8--9-------------------
D------------------------------------------------------------------------------------------------------------------
A------------------------------------------------------------------------------------------------------------------
E------------------------------------------------------------------------------------------------------------------

	    _____________   	  _________
	   |	Repeat     |           |    Repeat  |                                 Repeat until end of Bridge
E------------------------------------------------------------------------------------------------------------------
B------------------------------------------------------------------------------------------------------------------
G-----------6---6--6---6----6--------4----4----4---------------------------------------------------------------
D-----------6---6--6---6----6--------4----4----4-----------4-----4/5---5-------------------------------------
A-----------4---4--4---4----4--------2----2----2-----------4-----4/5---5-------------------------------------
E--------------------------------------------------------------2-----2/3---3-------------------------------------

				That's all folks! Just repeat the Verse until the very end of the song. Not very hard. Allright everybody, I'm out.
							---Steel Picker---




Текст, аккорды и табулатура для песни "Rearranged", исполняет "Limp Bizkit".
Используемые в песне аккорды можно найти в разделе Как брать аккорды. Аккорды для шестиструнной гитары. Другие песни можно найти на нашем сайте, воспользовавшись алфавитным указателем вверху страницы.


 
Ошибка в тексте? Выделите ошибку и нажмите Ctrl+Enter