Significant Other - наипиздатозаебатовский альбом охуевательнозаебатовской группы


 Лучше с медиатором:
C#------------------------------------------------------------- 
G#------------------------------------------------------------- 
E---------7----------------7--------------------5-------------- 
B-------------------------------------------------------------- 
F#---5-------5-----------------------------3---------3--------- 
C#------------------6------------0-------------------------4--- 

(0:50) 
C#------------------------------------------------------------- 
G#------------------------------------------------------------- 
E----9--9--9--9--9--9--9--------------------------------------- 
B-------------------------------------5------------------4----- 
F#---7--7--7--7--7--7--7--------------------------------------- 
C#------------8--8--8--8----0----3---------3-----2------------- 

C#------------------------------------------------------------- 
G#------------------------------------------------------------- 
E----9--9--9--9--9--9--9---------7--7--7--7--8----8---8---8---- 
B-------------------------------------------------------------- 
F#---7--7--7--7--7--7--7---------5--5--5--5--6----6---6---6---- 
C#------------8--8--8--8----0---------------------------------- 

(2:16) 
C#------------------------------------------------------------- 
G#------------------------------------------------------------- 
E----9---9---9---9---9---9---9---9---9---9---9----------------- 
B-------------------------------------------------------------- 
F#---7---7---7---7---7---7---7---7---7---7---7----------------- 
C#-------------------------------------------8----------------- 

(2:23) 
C#------------------------------------------------------------- 
G#------------------------------------------------------------- 
E---7--7--7--7--7--7--7--7--8--8--8--8--8--8--8--8--9----9b---- 
B-------------------------------------------------------------- 
F#--5--5--5--5--5--5--5--5--6--6--6--6--6--6--6--6--7----7b---- 
C#------------------------------------------------------------- 

(2:30) 
C#------------------------------------------------------------- 
G#------------------------------------------------------------- 
E----------------9--9br9br9------------------------------------ 
B-------------------------------------------------------------- 
F#---7br7br7br7------------------------------------------------ 
C#------------------------------------------------------------- 

(2:36)
C#------------------------------------------12--12--12--------- 
G#------------------7-------------------10-------------------8- 
E-------------0----------------------0----------------------0-- 
B-------------------------------------------------------------- 
F#------------------------------------------------------------- 
C#---0---7----------------0----10-----------------------0-0---- 

(2:55) 
C#------------------------------------------------------------- 
G#------------------------------------------------------------- 
E-------------------------------------------------------------- 
B----9--9--9--9--9--9--9--9-9---7-7-7-7---8----8--8--8--8------ 
F#---7--7--7--7--7--7--7--7-7---5-5-5-5---6----6--6--6--6------ 
C#------------8--8--8--8--8-8---------------------------------- 


(3:41) 
C#------------------------------------------------------------- 
G#------------------------------------------------------------- 
E----7---7---7---7--/--8---8---8---8---8-------9--------------- 
B----------------------------------------------9--------------- 
F#---5---5---5---5--/--6---6---6---6---6-------7--------------- 
C#---------------------------------------------0--------------- 

P.S Классно звучит на электрогитаре высокой тональности, а оссобенно если играть 
правильно с медиаторомво время слов "How can you 
respect yourself ?" (2:36) - ващще улетно, кто слышал оригинал трека, тот поймет...
                                                           Привет всем рэперам от 
Астрахана...


Текст, аккорды и табулатура для песни "No Sex", исполняет "Limp Bizkit".
Используемые в песне аккорды можно найти в разделе Как брать аккорды. Аккорды для шестиструнной гитары. Другие песни можно найти на нашем сайте, воспользовавшись алфавитным указателем вверху страницы.


 
Ошибка в тексте? Выделите ошибку и нажмите Ctrl+Enter