Tuning: c# G# E B F# C#

Intro & Verse part 1
с#-0--|-4----3---0--
G#-1--|-6----4---1--
E--0--|-6----3---0--
B--2--|-6----3---2--
F#-3--|-4----6---3--
C#------
 
Verse part 2 (Played finger-style)
C#------------1/5-5-5--3-3-------------------------------------
G#--------------------------------5-----5----------------------
E----2--2-------------------------------------4----4-----------
B----2----2------------------5------5-------5----5-------------
F#---0--------------------3------------------------------------
C#---------------------------------------3---------------------

Chorus
C#--4--4-4-4--4-4-4--4-4-4-4-4-4-4--5--5-5-5--5-5-5--5-5-5-5-5-
G#-------------------------------------------------------------
E--------------------------------------------------------------
B---2--2-2-2--2-2-2--2-2-2-2-2-2-2--5--5-5-5--5-5-5--5-5-5-5-5-
F#--2--2-2-2--2-2-2--2-2-2-2-2-2-2--5--5-5-5--5-5-5--5-5-5-5-5-
C#--0--0-0-0--0-0-0--0-0-0-0-0-0-0--3--3-3-3--3-3-3--3-3-3-3-3-


C#--4--4-4-4--4-4-4--4-4-4-4-4-4-4--5--5-5-5--3-3-3--3-3-3-3-3-
G#-------------------------------------------------------------
E--------------------------------------------------------------
B---2--2-2-2--2-2-2--2-2-2-2-2-2-2--5--5-5-5--5-5-5--5-5-5-5-5-
F#--2--2-2-2--2-2-2--2-2-2-2-2-2-2--5--5-5-5--5-5-5--5-5-5-5-5-
C#--0--0-0-0--0-0-0--0-0-0-0-0-0-0--3--3-3-3--3-3-3--3-3-3-3-3-

Post Chorus
C#-------------------------------------------------------------
G#-------------------------------------------------------------
E--------------------------------------------------------------
B---2-2--x-x--x-2-2--x-x--x-x-2-x-x-x-x-5-5-x---5----5---x---5-
F#--2-2--x-x--x-2-2--x-x--x-x-2-x-x-x-x-5-5-x---5----5---x---5-
C#--0-0--x-x--x-0-0--x-x--x-x-0-x-x-x-x-3-3-x-0-3-0--3---x-0-3-
 
Interlude:
 
с#---------|---------|---------|---------|---------|---------|
G#---------|---------|---------|---------|---------|---------|
E----------|---------|-----9---|---------|-----11--|---------|-------14--|
B------11--|-----7---|---7-----|-----9---|---9-----|-----12--|----12-----|
F#---9-----|---5-----|-5-------|---7-----|-7-------|---10----|-10--------|
C#-7-------|-3-------|---------|-5-------|---------|-8-------|
                     
 
c#-----------|
G#-----------|
E------------|
B--------14--|
F#----12-----|
C#-10--------|
 
End

с#-4----------|-5----------7----------|
G#------------------------|
E-------------|-4----------4----------|
B--2----------|-5----------5----------|
F#-2----------|-5----------5----------|
C#-0----------|-3----------3----------|
 
c#-4----------|-5----------3----------|
G#------------------------|
E-------------|-4---------------------|
B--2----------|-5----------5----------|
F#-2----------|-5----------5----------|
C#-0----------|-3----------3----------| 


Текст, аккорды и табулатура для песни "My Way", исполняет "Limp Bizkit".
Используемые в песне аккорды можно найти в разделе Как брать аккорды. Аккорды для шестиструнной гитары. Другие песни можно найти на нашем сайте, воспользовавшись алфавитным указателем вверху страницы.


 
Ошибка в тексте? Выделите ошибку и нажмите Ctrl+Enter