Использованные обозначения:
* - глушеные ноты,
(n) - натуральный флажолет на n ладу.
h - hammer on

Intro. Heavy grunge distortion.
E|---1--1---0-1-2-1--2-----|
A|---3--3---2-3-4-3--4-----|
D|---3--3---2-3-4-3--4-----|
G--------------|
B--------------|
e--------------|

Verse #1 Heavy grunge distortion
     **      **      ** 
E|---11-(4)--11-(4)--11-(4)------|
A--------------------|
D--------------------|
G--------------------|
B--------------------|
e--------------------|

Pre-Chorus. Heavy grunge distortion
E|---4-4---x---4-4-4x---4-4---х---4-4-(4)---|
A|---6-6---x---6-6-6x---6-6---х---6-6х------|
D|---6-6---x---6-6-6x---6-6---х---6-6х------|
G-------------------------------|
B-------------------------------|
e-------------------------------|

Chorus. Heavy grunge distortion
E|---4-4---0-222---1---|
A|---6-6---2-444---3---|
D|---6-6---2-444---3---|
G----------|
B----------|
e----------|

Verse #2. Heavy grunge distortion.
Play verse #1.

Pre-chorus. Heavy grunge distortion.
E|---4-4---x---4-4-4x---4-4---х---4-4-(4)---|
A|---6-6---x---6-6-6x---6-6---х---6-6-(4)---|
D|---6-6---x---6-6-6x---6-6---х---6-6х------|
G-------------------------------|
B-------------------------------|
e-------------------------------|

Chorus 2 times.
Bridge.
Heavy grunge distortion.|Clean guitar.
           ***              * * * *    * * * *       * * * *    * * * *
E|---4-3-0-000----------|---0-0-0-0-12-0-0-0-0-10h12-0-0-0-0-12-0-0-0-0-3-1---|
A|---6-5-2-222----------------------------------------------------|
D|---6-5-2-222----------------------------------------------------|
G-----------------------------------------------------|
B-----------------------------------------------------|
e-----------------------------------------------------|

Heavy grunge distortion.
     * * * *    * * * *       * * * *    * * * * 
E|---0-0-0-0-12-0-0-0-0-10h12-0-0-0-0-12-0-0-0-0-3-1---|
A------------------------------------------|
D------------------------------------------|
G------------------------------------------|
B------------------------------------------|
e------------------------------------------|

Pre-chorus. Heavy grunge distortion.
E|---4-4---x---4-4-4x---4-4---х---4-4-(4)---|
A|---6-6---x---6-6-6x---6-6---х---6-6-(4)---|
D|---6-6---x---6-6-6x---6-6---х---6-6-(4)---|
G-------------------------------|
B-------------------------------|
e-------------------------------|
Chorus 2 times.

Ending.
E|---3-333-33-3-333-33-0---|
A|---5-555-55-5-555-55-2---|
D|---5-555-55-5-555-55-2---|
G--------------|
B--------------|
e--------------|


Текст, аккорды и табулатура для песни "My Generation", исполняет "Limp Bizkit".
Используемые в песне аккорды можно найти в разделе Как брать аккорды. Аккорды для шестиструнной гитары. Другие песни можно найти на нашем сайте, воспользовавшись алфавитным указателем вверху страницы.


 
Ошибка в тексте? Выделите ошибку и нажмите Ctrl+Enter