say what - life sux
this a good song! you wont fint the music anywhere
you know why? i made this up
kick ass song
TOLEY OSHUST
*- ring
 - slide down
/ - slide up

Intro (2x)
1---------------------------------------------------------------------------------------------------
2----------10-----10---10---10---10----10----------10----10---10---10---10---10---------9---9-------
3------10-----10-------------------------------------9-----9----------------------------------9---9-
4—0----------------------------------------------0-----------------------------------------0--------
5---------------------------------------------------------------------------------------------------
6---------------------------------------------------------------------------------------------------

1----------------------------------------------------------
2---9---9---9---9---9-------10---10---10---10---10---10*---
3---------------------------9-----9------------------------
4------------------------0---------------------------------
5----------------------------------------------------------
6----------------------------------------------------------


Verse I (1x)
1--------------------------------------------------------------------------------------------------------
2--------------------------------------------------------------------------------------------------------
3---4---5---5---5---5---5---5---------6----7---7---7---7---7---7-----------------------------------------
4---4---5---5---5---5---5---5---------6----7---7---7---7---7---7-------6----7---7---7---7---7---7--------
5---2---3---3---3---3---3---3---------4----5---5---5---5---5---5-------6----7---7---7---7---7---7--------
6-----------------------------------------------------------------------------4----5---5---5---5---5---5-

1-------------------------------------------
2-------------------------------------------
3---8----9---9---9---9---9---9--------------
4---8----9---9---9---9---9---9-------7*-----
5---6----7---7---7---7---7---7-------7------
6----------------------------------------5--


Verse II (3x)
1---------------------------------------------------------------
2---------------------------------------------------------------
3-----------------------------------------------------7---7---7-
4---9---9---9------5---5---5------7---7---7-------7---7---7-----
5---9---9---9------5---5---5------7---7---7-------5---5---5-----
6---7---7---7------3---3---3------5---5---5---------------------



Verse III (4x)
1---------------------------------------------------------------
2---------------------------------------------------------------
3-----------------------------------------------------7---7---7-
4---9---9---9------5---5---5------7---7---7-------7---7---7-----
5---9---9---9------5---5---5------7---7---7-------5---5---5-----
6---7---7---7------3---3---3------5---5---5---------------------


Verse IV (5x)
1-------------------------------------------------------
2-------------------------------------------------------
3-------------------------------------------------------
4—11-11-11-----7---7---7----9---9---9-----5---5---5-----
5—11-11-11-----7---7---7----9---9---9-----5---5---5-----
6---9---9---9-----5---5---5-----7---7---7-----3---3---3-


Outro (3x)
1---------------------------------------------------------------
2---------------------------------------------------------------
3-----------------------------------------------------7---7---7-
4---9---9---9------5---5---5------7---7---7-------7---7---7-----
5---9---9---9------5---5---5------7---7---7-------5---5---5-----
6---7---7---7------3---3---3------5---5---5---------------------


Текст, аккорды и табулатура для песни "Life Sux", исполняет "Limp Bizkit".
Используемые в песне аккорды можно найти в разделе Как брать аккорды. Аккорды для шестиструнной гитары. Другие песни можно найти на нашем сайте, воспользовавшись алфавитным указателем вверху страницы.


 
Ошибка в тексте? Выделите ошибку и нажмите Ctrl+Enter