Intro,Verse 1 : Play 8x 
  I just read your letter...
 E------------------------------------------------------------------------------
 B------------------------------------------------------------------------------
 G------0---------0------4-4-4-4-777-7766---------------------------------------
 D----4---4-----4---4-----------------------------------------------------------
 A------------------------------------------------------------------------------
 E-0---------0---------3-------------------------------------------------------- 
 
Verse 2,Pre-chorus : Play 2x
  What to do ? My life is through...
 E------------------------------------------------------------------------------
 B-----8b-----8b-----10b------10b-----------------------------------------------
 G-9-9----9-9----9-9------9--9--------------------------------------------------
 D------------------------------------------------------------------------------
 A------------------------------------------------------------------------------
 E------------------------------------------------------------------------------ 

 Далее опять играется Verse 1 и Verse 2 по 4 раза.

Chorus 1 : Play 4x
 (Distortion)
  ...fuckin´ up my whole life
 C------------------------------------------------------------------------------
 G------------------------------------------------------------------------------
 E------------------------------------------------------------------------------
 B------------------------------------------------------------------------------
 F---------7-5------------------------------------------------------------------
 C--0-0--------5-----0-0--1-----------------------------------------------------

Chorus 2 : Play 6x
 (Distortion)
  So I´m on my way...  
 E------------------------------------------------------------------------------
 B------------------------------------------------------------------------------
 G------------------------------------------------------------------------------
 D--2-2---2-0--------3---------2-2---2-0-------3--------------------------------
 A--2-2-------2------3---------2-2-------2-----3--------------------------------
 E--0-0-0--------0-0-1---------0-0-0-------0-0-1-------------------------------- 

 Далее опять Verse 1,Verse 2 по 4 раза,затем припевы Chorus 1 - 4 раза,Chorus 2 - 6 раз


Bridge 1(Самый трудный момент,но в принципе получается похоже) : Play 8x
 E----------------0-77-99-1111-1313-1414----------------------------------------
 B--8h9-8-5h6-------------------------------------------------------------------
 G------------------------------------------------------------------------------
 D------------------------------------------------------------------------------
 A------------------------------------------------------------------------------
 E-0---------------------------------------------------------------------------- 

Bridge 2 : Play 4x
 (Distortion)
 ...Better place you can take me
 E------------------------------------------------------------------------------
 B------------------------------------------------------------------------------
 G------------------------------------------------------------------------------
 D-3---3-3-3-3-----9--9----12---12----------------------------------------------
 A-3---3-3-3-3-----9--9----12---12----------------------------------------------
 E-1---1-1-1-1-----7--7----10---10----------------------------------------------

 Затем опять идет Chorus 1 - 4 раза, Chorus 2 - 6 раз.
 После этого следует Intro : 6x 
 
i just read your letter
it says that you’ll be gone for a while 
everything was gettin’ better
i guess i’m just a fool strung out
what to do? 
life is through
just want to kill
myself for you 
i wonder 
just how sympathetic you’ll be you’ve come 
to take me under and i’ve forgotten 
all about me 
what to do? 
my life is through 
just want to kill 
myself for you 
so tell me why 
you say goodbye? 
and tell me why 
your fuckin’ up my whole life? 
yeah, 
fuckin’ up my whole life 
so, i’m on my way 
i leave today 
if i get away 
it’ll be ok 
it’ll be ok 
i’m looking out a window 
into a world that’s taken you from me 
and i’m feeling so disgusted 
how pathet-ic can i possibly be? 
what to do? 
life is through 
just want to kill 
myself for you 
so tell me why 
you say goodbye 
and tell me why 
you’re fuckin’ up my whole life 
fuckin’ up my whole life 
so, i’m on my way i leave today if i get away 
it’ll be ok 
it’ll be ok 
if there’s a better place you can take me 
a better life you can give me 
whatever place i can start all over 
then i would never need what you gave me 
never need you to save me 
and never feel like this life is over 
if there’s a better place you can take me 
a better life you can give me 
whatever place 
i can start all over 
then i would never need what you gave me 
and never need you to save me 
and never feel like this life is over 
feel like this life is over 
so, i’m on my way 
i leave today 
if i can get away 
it’ll be ok 
it’ll be ok 


Текст, аккорды и табулатура для песни "Itll Be OK", исполняет "Limp Bizkit".
Используемые в песне аккорды можно найти в разделе Как брать аккорды. Аккорды для шестиструнной гитары. Другие песни можно найти на нашем сайте, воспользовавшись алфавитным указателем вверху страницы.


 
Ошибка в тексте? Выделите ошибку и нажмите Ctrl+Enter