GUITAR TABLATURE ONLINE

          URL: www.angelfire.com/bc/tablature
	EMAIL: [email protected]

 [email protected]-----------------------------

	     SONG: Faith
	     BAND: Limp Bizkit
	    ALBUM: Three Dollar Bill Y'All
   TRANSCRIBED BY: Paul De Jaegher
	     DATE: September 3, 1999

 ----------------------------------------------------------------------------------------------

	TUNING: tune your guitar down one and a half steps and then drop d (B,F#,B,E,G#,C#)


     INTRO:

     Strum around on this chord for four bars (until just before Fred begins to sing)
     The rhythm's easy to work out

   C#|-----|
   G#|--7--|
    E|--7--|
    B|--7--|
   F#|--5--|
    B|-----|

     1ST VERSE:

     Just strum around on these two chords
     Work out the rhythm, it's easy

   C#|-----|-----|
   G#|--7--|--5--|
    E|--7--|--5--|
    B|--7--|--5--|
   F#|--5--|--3--|
    B|-----|-----|

     PRE-CHORUS:

     Play this three times with slight variations

   C#|--------------------------------------------------|
   G#|---------5-------------------------------5h7------|
    E|--------------------------------7--------5h7---7--|
    B|-----5---------5-----5------7------------5h7------|
   F#|--3----------------------5------------5------5----|
    B|--------------------------------------------------|

     Then play this once

   C#|-----------------------------------------5--------|
   G#|---------2-----2---------2h3p2--------------------|
    E|-------------------------------2------------------|
    B|-----2---------------2--------------2-------------|
   F#|--0-----------------------------------------------|
    B|--------------------------------------------------|

     CHORUS:

   C#|-----------------------------|
   G#|-----------------------------|
    E|--7p5---------7p5-----7--7b--|
    B|--7p5---------7p5------------|
   F#|--5-----------5-------5--5b--|
    B|------0-0-0-0-----0-0-0--0---|

     2ND VERSE:

     Play this twice

   C#|------------------------------|
   G#|--------------------7---------|
    E|--7-----7-----7-----------7b--|
    B|--7-----7-----5---------------|
   F#|--5-----5-----5---------------|
    B|----0-0---0-0---0-0---0-0-----|
        pm...   ...   ...   ...

     Play this once

   C#|-----------------------------------|
   G#|--------------------5--------------|
    E|--5-----5-----5-----5-----5---5----|
    B|--5-----5-----5-----------5---5----|
   F#|--3-3-3-3-3-3-3-3-3---3-3---3---3--|
    B|-----------------------------------|
        pm...   ...   ...   ...   .   .   

     Play this three times

   C#|------------------------------|
   G#|--------------------7---------|
    E|--7-----7-----7-----------7b--|
    B|--7-----7-----5---------------|
   F#|--5-----5-----5---------------|
    B|----0-0---0-0---0-0---0-0-----|
        pm...   ...   ...   ...

     Play this once

   C#|-----------------------------------|
   G#|--------------------5--------------|
    E|--5-----5-----5-----5-----5---5----|
    B|--5-----5-----5-----------5---5----|
   F#|--3-3-3-3-3-3-3-3-3---3-3---3---3--|
    B|-----------------------------------|
        pm...   ...   ...   ...   .   .   

     Play this once

   C#|------------------------------|
   G#|--------------------7---------|
    E|--7-----7-----7-----------7b--|
    B|--7-----7-----5---------------|
   F#|--5-----5-----5---------------|
    B|----0-0---0-0---0-0---0-0-----|
        pm...   ...   ...   ...

     TURNTABLE SOLO:

   C#|------------------------------------|
   G#|------------------------------------|
    E|------------------------------------|
    B|------------------------------------|
   F#|--0-0----0-0----0-0----1-1-1-1p0-0--|
    B|--0-0----0-0----0-0----1-1-1-1p0-0--|

     OUTRO:

     Play this seven times

   C#|------------------------------------|
   G#|------------------------------------|
    E|------------------------------------|
    B|------------------------------------|
   F#|--0-0----0-0----0-0----1-1-1-1p0-0--|
    B|--0-0----0-0----0-0----1-1-1-1p0-0--|

     Then play this once

   C#|------------------------------------|
   G#|------------------------------------|
    E|------------------------------------|
    B|------------------------------------|
   F#|--0-0----1-0----0-0----1-0-0-0------|
    B|--0-0----1-0----0-0----1-0-0-0------|




Текст, аккорды и табулатура для песни "Faith", исполняет "Limp Bizkit".
Используемые в песне аккорды можно найти в разделе Как брать аккорды. Аккорды для шестиструнной гитары. Другие песни можно найти на нашем сайте, воспользовавшись алфавитным указателем вверху страницы.


 
Ошибка в тексте? Выделите ошибку и нажмите Ctrl+Enter