Tab: Creamer
Artist: LB
Album: Results May Vary

To me this is one of Limp Bizkit's best song and sadly I can't find any
tabs witht he intro in it so I tabbed it myself..it may not be 100% perfect,
in fact prolly not even 50% perfect :D

Intro:

e|-4---4-----------4-2-----4-2------|
B|---2---2-7-9---2-----4-2-----4----|
G|----------------------------------|
D|----------------------------------|
A|----------------------------------|
E|----------------------------------| (x8)

the guitar stops and the bass comes in, the next part the guitar joins in is at the bridge

e|------------------------------------------|
B|------------------------------------------|
G|--11-----------6-----------9--------------|
D|--11-----------6-----------9-----------9--|
A|---9-----------4-----------7-----------9--|
D|---------------------------------------9--|
 lol i hope that helped..


Текст, аккорды и табулатура для песни "Creamer", исполняет "Limp Bizkit".
Используемые в песне аккорды можно найти в разделе Как брать аккорды. Аккорды для шестиструнной гитары. Другие песни можно найти на нашем сайте, воспользовавшись алфавитным указателем вверху страницы.


 
Ошибка в тексте? Выделите ошибку и нажмите Ctrl+Enter