group: Limp bizkit
song: Counterfeit
name: Mike Selbitschka ([email protected])

Tabbed by Mike selbitschka and Chris shiraldi

CounterFeit


Intro: 
C#-------------------------------------------
G#-------------------------------------------
E--------------------------------------------
B--------9-9---------9--6-6--------9-9-------
F#---8-7------8-7--7-----------8-7------8--7-
C#---0-0------0-0--0----0-0----0-0----------- 

Heavy Part:
C#-------------------------------------------
G#-------------------------------------------
E--------------------------------------------
B----3-2-------------3-2---------------------
F#---3-2-------------3-2---------------------
C#---1-0-------1-0--0---------

C#--------------------------------------------------------
G#--------------------------------------------------------
E---------------------------------------------------------
B----3-2-------------3-2----------------------------------
F#---3-2-------3-2----------------------------------
C#---1-0-------------1-0---------

Sustained Power Chords(Only heard in right channel)
C#------------------------
G#------------------------
E-------------------------
B----3--2---3--2----------
F#---3--2---3--2----------
C#---1--0---1--0----------

Other Part:
C#---------------------------------
G#---------------------------------
E----9--10----------4----4/5-------
B------------X---X-----------------
F#---7---8---X---X--2--X-2/3--0----
C#---0---0---X---X--X--------------

C#---------------------------------
G#---------------------------------
E----9--10-----------14--X-X--14---
B------------X-X--X------X-X-------
F#---7---8---X-X--X--12--X-X--12---
C#---0---0---X-X--X----------------

Heavy Single-Note Part
C#-----------------------------------
G#-----------------------------------
E------------------------------------
B------------------------------------
F#-----7-5---------------------------
C#---0-----0-5-7-0-3----0-0-0-2-3-2--

C#-----------------------------------
G#-----------------------------------
E------------------------------------
B------------------------------------
F#-----7-5-------------------7^1/2---
C#---0-----0-5-7-0-3----0--0-0-------

X=Mute
=Harmonic
/=Slide


Текст, аккорды и табулатура для песни "Counterfeit", исполняет "Limp Bizkit".
Используемые в песне аккорды можно найти в разделе Как брать аккорды. Аккорды для шестиструнной гитары. Другие песни можно найти на нашем сайте, воспользовавшись алфавитным указателем вверху страницы.


 
Ошибка в тексте? Выделите ошибку и нажмите Ctrl+Enter