Intro,Verse : Play 10x 
 pm - palm muted (глушение)
  It´s just one of those days... 
 E-----------------------------------------------------------------------------------------x
 B-----------------------------------------------------------------------------------------x
 G-----------------------------------------------------------------------------------------x
 D-2--8------------------------------------------------------------------------------------x
 A-2--8------------------------------------------------------------------------------------x
 E-0--6------------------------------------------------------------------------------------x
      pm

 Note 1 : Глушите не сам удар,а просто не давайте ему долго звучать. Трудно объяснить. 
          Послушайте песню и все станет понятно.

Chorus : Play 7x
 
   It´s all about the he said she said...
 E-----------------------------------------------------------------------------------------x
 B-----------------------------------------------------------------------------------------x
 G-----------------------------------------------------------------------------------------x
 D-4------4----4---------------------------------------------------------------------------x
 A-4------4----4-0-0-----------------------------------------------------------------------x
 E-2--0---2----2-0-0-----------------------------------------------------------------------x 
      pm      _____/
                pm
End-Chorus : Play 1x

 E---------------x
 B---------------x
 G---------------x
 D-2--8----------x
 A-2--8----------x
 E-0--6----------x

 Note 2 : В припеве не обязательно строго следовать схеме,но вообще я описал все точно,
          там просто Вес глушит особенно. Повторяю,послушайте песню и все станет ясно,
          как день.

 Далее следует Verse - 8x и Chorus - 8x

Bridge 1 : Play 63x или что-то около того,короче очень много.
   I feel like shit...
 E---------------x  
 B---------------x (Здесь самое важное понять ритм,но он простой,поэтому никаких солжностей
 G---------------x  не должно возникнуть.)
 D---------------x
 A-2-------------x
 E---1-----------x

Bridge 2 : 40x
   Give me some to break...
 E-----------------------------------------------------------------------------------------x
 B-----------------------------------------------------------------------------------------x
 G-5---------------------------------------------------------------------------------------x
 D-5-4--4-4-4-4-4--------------------------------------------------------------------------x
 A-3-4--4-4-4-4-4--------------------------------------------------------------------------x
 E---2--2-2-2-2-2--------------------------------------------------------------------------x

 Далее End-Chorus - 1x и Chorus - 7x




   Bass :

Verse : Play 8x                   
   It´s just one of those days...
 G-------------------------x         (Бас начинает играть с третьего раза,тоесть         
 D-------------------------x          в Intro его нет.) 
 A-------------------------x     
 E---3---------------------x     
 B-2-----------------------x

Chorus : Play 7x 
   It´s all about the he said she said...
 G-------------------------x
 D-------------------------x
 A-------------------------x
 E-------------------------x
 B-3--3--3-0---------------x    
           pm

Bridge 1 Play 25x               Bridge 2 Play : 38x                    
   I feel kike shit...             I´ll pack a chainsow... 
 G-------------------------x     G------------------------x
 D-------------------------x     D------------------------x
 A-------------------------x     A------------------------x  
 E-3-----------------------x     E-3----------------------x
 B---2---------------------x     B---2--2-2-2-2-2---------x

 Далее Chorus - 7x




It´s just one of those days 
When ya don´t wanna wake up 
Everything is fucked, everybody sucks. 
You don´t really know why 
But you wanna justify rippin´ someone´s head off 
No human contact 
And if you interact your life is on contract 
Your best bet is to stay away mother fucker! 
It´s just one of those days! 

It´s all about the he said she said bullshit 
I think you better quit lettin´ shit slip 
Or you´ll be leavin with a fat lip 
It´s all about the he said she said bullshit 
I think you better quit talkin´ that shit 

It´s just one of those days 
Feelin´ like a freight train 
First one to complain 
Leaves with a blood stain 
Damn right I´m a maniac 
You better watch your back 
Cuz I´m fuckin´ up your program 
And if you´re stuck up 
You just lucked up 
Next in line to get fucked up 
Your best bet is to stay away motherfucker! 
It´s just one of those days! 

It´s all about the he said she said bullshit. 
I think you better quit lettin shit slip 
Or you´ll be leavin with a fat lip 
It´s all about the he said she said bullshit 
I think you better quit talkin that shit, punk 
So come and get it 

I feel like shit 
My suggestion is to keep your distance 
Cuz right now I´m dangerous 
We´ve all felt like shit 
And been treated like shit 
All those motherfuckers, they want to step up 
I hope ya know 
I pack a chainsaw 
I´ll skin your ass raw 
And if my day keeps going this way 
I just might break something tonight 
Give me something to break 

I pack a chainsaw 
I´ll skin your ass raw 
And if my day keeps going this way 
I just might break your fuckin´ face tonite 

Give me something to break 
Just give me something to break 
How ´bout your fuckin´ face? 

I hope you know I pack a chainsaw, what? 
I hope you know I pack a chainsaw, a mutherfuckin´ chainsaw, what? 
Some and get it 

It´s all about the he said she said bullshit. 
I think you better quit lettin shit slip 
Or you´ll be leavin with a fat lip 
It´s all about the he said she said bullshit 
I think you better quit talkin that shit 
So come and get it


Текст, аккорды и табулатура для песни "Break Stuff", исполняет "Limp Bizkit".
Используемые в песне аккорды можно найти в разделе Как брать аккорды. Аккорды для шестиструнной гитары. Другие песни можно найти на нашем сайте, воспользовавшись алфавитным указателем вверху страницы.


 
Ошибка в тексте? Выделите ошибку и нажмите Ctrl+Enter