Band: Limp Bizkit
Song: Almost Over
tuning: B F# B E G# C# (drop B)
tabbed by Porthos

S - slide

Intro + Verse (0:00-0:47)
clean with delay 
|-------------------------------------------------------------------------|
|-------------------------------------------------------------------------|
|--------7-------7-------7-------7-------7--------------------------------|
|------7---7---7---7---7---7---7---7---7---7------------------------------|
|----5-------5-------5-------5-------5-------5----------------------------|
|-------------------------------------------------------------------------|
 

verse (0:48-1:06)
distortion with delay 
|-------------------------------------------------------------------------|
|-------------------------------------------------------------------------|
|--------7-------7-------7-------7-------7--------------------------------|
|------7---7---7---7---7---7---7---7---7---7------------------------------|
|----5-------5-------5-------5-------5-------5----------------------------|
|-------------------------------------------------------------------------|


Pre-chorus (1:07-1:16)
heavy distortion
|-------------------------------------------------------------------------|
|-------------------------------------------------------------------------|
|-------------------------------------------------------------------------|
|---0~-----3-5~---3-------------------------------------------------------|
|---0~-----3-5~---3-------------------------------------------------------|
|---0~-----3-5~---3-------------------------------------------------------|


Chorus 1 (1:17-1:41)
heavy distortion
|----------------------------------------------------------|--------------|
|----------------------------------------------------------|----end with--|
|----5-------------------------5---------------------------|--------------|
|----5-0-0-0-0-00-6-0-0-0-0-00-5-0-0-0-0-00-6-6-6-6-55-----|-------0~-----|
|----3-0-0-0-0-00-6-0-0-0-0-00-3-0-0-0-0-00-6-6-6-6-55-----|-------0~-----|
|------0-0-0-0-00-6-0-0-0-0-00---0-0-0-0-00-6-6-6-6-55-----|-------0~-----|


Intro + Verse (1:41-2:04)
clean with delay 
|-------------------------------------------------------------------------|
|-------------------------------------------------------------------------|
|--------7-------7-------7-------7-------7--------------------------------|
|------7---7---7---7---7---7---7---7---7---7------------------------------|
|----5-------5-------5-------5-------5-------5----------------------------|
|-------------------------------------------------------------------------|
 

verse (2:05-2:23)
distortion with delay 
|-------------------------------------------------------------------------|
|-------------------------------------------------------------------------|
|--------7-------7-------7-------7-------7--------------------------------|
|------7---7---7---7---7---7---7---7---7---7------------------------------|
|----5-------5-------5-------5-------5-------5----------------------------|
|-------------------------------------------------------------------------|


Pre-chorus (2:23-2:33)
heavy distortion
|-------------------------------------------------------------------------|
|-------------------------------------------------------------------------|
|-------------------------------------------------------------------------|
|---0~-----3-5~---3-------------------------------------------------------|
|---0~-----3-5~---3-------------------------------------------------------|
|---0~-----3-5~---3-------------------------------------------------------|


Chorus 1 (2:33-2:52)
heavy distortion
|--------------------------------------------------------------|
|--------------------------------------------------------------|
|----5-------------------------5-------------------------------|
|----5-0-0-0-0-00-6-0-0-0-0-00-5-0-0-0-0-00-6-6-6-6-55---------|
|----3-0-0-0-0-00-6-0-0-0-0-00-3-0-0-0-0-00-6-6-6-6-55---------|
|------0-0-0-0-00-6-0-0-0-0-00---0-0-0-0-00-6-6-6-6-55---------|


Chorus 2 (2:52-3:16)
heavy distortion
|-------------------------------------------------------------------------|
|-------------------------------------------------------------------------|
|--11s12-9--11-11-11--11s12-9--11-11~---11s12-9--11-11-11--11s12-9--11----|
|---xs-x-x---x--x--x---xs-x-x---x--x~----xs-x-x---x--x--x---xs-x-x---x-0~-|
|---9s10-7---9--9--9---9s10-7---9--9~----9s10-7---9--9--9---9s10-7---9-0~-|
|----------------------------------------------------------------------0~-|


Pre-chorus (3:26-3:36)
heavy distortion
|-------------------------------------------------------------------------|
|-------------------------------------------------------------------------|
|-------------------------------------------------------------------------|
|---0~-----3-5~---3-------------------------------------------------------|
|---0~-----3-5~---3-------------------------------------------------------|
|---0~-----3-5~---3-------------------------------------------------------|


Chorus 1(3:36-3:46)
heavy distortion
|--------------------------------------------------------------|
|--------------------------------------------------------------|
|----5-------------------------5-------------------------------|
|----5-0-0-0-0-00-6-0-0-0-0-00-5-0-0-0-0-00-6-6-6-6-55---------|
|----3-0-0-0-0-00-6-0-0-0-0-00-3-0-0-0-0-00-6-6-6-6-55---------|
|------0-0-0-0-00-6-0-0-0-0-00---0-0-0-0-00-6-6-6-6-55---------|

Chorus 2 (3:46-4:05)
heavy distortion
|-------------------------------------------------------------------------|
|-------------------------------------------------------------------------|
|--11s12-9--11-11-11--11s12-9--11-11~---11s12-9--11-11-11--11s12-9--11----|
|---xs-x-x---x--x--x---xs-x-x---x--x~----xs-x-x---x--x--x---xs-x-x---x-0~-|
|---9s10-7---9--9--9---9s10-7---9--9~----9s10-7---9--9--9---9s10-7---9-0~-|
|----------------------------------------------------------------------0~-|


Chorus 1 (4:06-4:38)
heavy distortion
|----------------------------------------------------------|--------------|
|----------------------------------------------------------|----end with--|
|----5-------------------------5---------------------------|--------------|
|----5-0-0-0-0-00-6-0-0-0-0-00-5-0-0-0-0-00-6-6-6-6-55-----|-------0~-----|
|----3-0-0-0-0-00-6-0-0-0-0-00-3-0-0-0-0-00-6-6-6-6-55-----|-------0~-----|
|------0-0-0-0-00-6-0-0-0-0-00---0-0-0-0-00-6-6-6-6-55-----|-------0~-----|


Текст, аккорды и табулатура для песни "Almost Over", исполняет "Limp Bizkit".
Используемые в песне аккорды можно найти в разделе Как брать аккорды. Аккорды для шестиструнной гитары. Другие песни можно найти на нашем сайте, воспользовавшись алфавитным указателем вверху страницы.


 
Ошибка в тексте? Выделите ошибку и нажмите Ctrl+Enter