By:Christina [email protected]
Luka taught me this over msn!!
-----------------------------------------

Lillix
Because

----------------------------------------

Intro/riff:
(distortion)
e|---------------------------------------------|
B|---------------------------------------------|
G|-9-------------8-8--------9-9-------11-11----|
D|-9--------6666--6--6--7777-7-7--9999--9---9--|
A|-7-777777------------------------------------|
E|---------------------------------------------|

e|-------------------------------------------| 
B|-99999999-77777777-55555555-44444444-------| 
G|-99999999-88888888-66666666-44444444-------| 
D|-------------------------------------------| 
A|-------------------------------------------| 
E|-------------------------------------------|


Verse 1:

 E5| 022xxx
G#5| 466xxx
 A6| 577xxx
 B5| 799xxx

play this progression twice, palm muted!

Here we are, it's but another little fight
They want you to be the only one in sight
Don't just make believe that you really care
We know honestly, you still ask..


Pre-chorus: 

e|----0--------0--------0--------0-----------| 
B|------0--------0--------0--------0---------| 
G|-------------------------------------------| 
D|---2---2----6---6----7---7----9---9--------| 
A|--2-----2--6-----6--7-----7--9-----9-------| 
E|-0--------4--------5--------7--------------|

Why you're calling
Why you're falling
Why you're crawling and we're not stalling...


Chorus:

E5, G#5, A5 and B5 x2

You always call about nothing at all
It's all because the way it was, you don't know
You always call about nothing at all
It's all because the way it was, you don't know


E|-------------------------------------------|
B|-------------------------------------------|
G|-------------------------------------9p8-9-|
D|-2-2-2-2--6-6-6-6--7-7-7-7--9-9-9-9--------|
A|-2-2-2-2--6-6-6-6--7-7-7-7--9-9-9-9--------|
E|-0-0-0-0--4-4-4-4--5-5-5-5--7-7-7-7--------|



Verse 2:
(same as verse 1, palm muted)
All the time complains come only from you
And we try to say there's nothing more we can do
Blaming it on me 'cause you're never right
Don't take it from me, we all know

Pre-chorus: 

e|----0--------0--------0--------0-----------| 
B|------0--------0--------0--------0---------| 
G|-------------------------------------------| 
D|---2---2----6---6----7---7----9---9--------| 
A|--2-----2--6-----6--7-----7--9-----9-------| 
E|-0--------4--------5--------7--------------|

Why you're calling
Why you're falling
Why you're crawling and we're not stalling...


Chorus:

E5, G#5, A5 and B5 x2

You always call about nothing at all
It's all because the way it was, you don't know
You always call about nothing at all
It's all because the way it was..

Bridge:


e|-----0---------|
B|-------4--4h5--|
G|---6----6------|
D|-6-------------|
A|-4-------------|
E|---------------| play this 2 times


e|-----3-3-------------3-3--|
B|-----4-3---3h4-------4-3--|
G|---5-----5---------5------|
D|-5---------------5--------|
A|--------------------------|
E|---------------2----------|


Hey you over there
Criticizing me
I don't really care what you think of me
You don't know you'll always be the...

A5...
Queen of bad news who tries to confuse
You'll always lose I know, 

G#5 whooooa... A5


Riff

e|---------------------------------------------|
B|---------------------------------------------|
G|-9-------------8-8--------9-9-------11-11----|
D|-9--------6666--6--6--7777-7-7--9999--9---9--|
A|-7-777777------------------------------------|
E|---------------------------------------------|


You always call nothing at all
You always call nothing at all


Chorus:

E5, G#5, A5 and B5 repeat til end

You always call nothing at all
(About nothing at all)
It's all because the way it was, you don't know
You always call nothing at all
(Call about nothing at all)
It's all because the way it was, you don't know


Текст, аккорды и табулатура для песни "Because", исполняет "Lillix".
Используемые в песне аккорды можно найти в разделе Как брать аккорды. Аккорды для шестиструнной гитары. Другие песни можно найти на нашем сайте, воспользовавшись алфавитным указателем вверху страницы.


 
Ошибка в тексте? Выделите ошибку и нажмите Ctrl+Enter