#-----------------------------------------------------------------------------#
#-- File created with Instab - http://www.pconline.com/~smcarey/instab.html --#
#-----------------------------------------------------------------------------#

Author/Artist: Ligabue
Title: Tra palco e rеаlта
Album: Su e giu da un palco
Transcribed by: Dela
Email: [email protected]

[email protected]--14-14------
-||----------17-17-------17-17-------17-17-------17-17-------17-17------------
-||----14-14-------------------14-14-------------------14-14------------------
-||---------------------------------------------------------------------------
-||---------------------------------------------------------------------------
-||---------------------------------------------------------------------------
     Electric clean                                                           

-------------------------14-14-------------------15-15------------------------
-------17-17-------17-17-------17-17-------17-17-------17-17-------17-17------
-------------14-14-------------------14-14-------------------14-14------------
------------------------------------------------------------------------------
------------------------------------------------------------------------------
------------------------------------------------------------------------------
                                                                              

----15-15-----------------------14-14-----------------------14-14------14-----
-----------17-17---------17-17---------17-17---------17-17---------17---------
------------------14-14-----------------------14-14---------------------------
------------------------------------------------------------------------------
------------------------------------------------------------------------------
------------------------------------------------------------------------------
                                                                              

---------------15-15-------------------15-15-------------------14-14----------
---------17-17-------17-17-------17-17-------17-17-------17-17-------17-17----
---14-14-------------------14-14-------------------14-14----------------------
------------------------------------------------------------------------------
------------------------------------------------------------------------------
------------------------------------------------------------------------------
                                                                              

---------------14-14----14--|--3----------------------------------------------
---------17-17-------17-----|--3----3---1p0-----------3---1p0-----------------
---14-14--------------------|--0-------------2p0---------------2/4----4-------
----------------------------|--0------------------0---------------------------
----------------------------|--2----------------------------------------------
----------------------------|--3----------------------------------------------
                               Light distortion                               

-----------------3-----3--------------------------3-----------------------3---
---3-1p0--------------------0h1p0--3--1p0-------3----3--------------------3---
---------2p0--/4---4-5---5----------------2p0----------0-0----------0-----0---
---------------------------------------------------------------0h2--------0---
----------------------------------------------2-------------3-----------------
------------------------------------------------------------------------------
                                                                              

------0--------------------------------------------3-------3----------3-------
---3-----3---3-----3---1p0--------3---1p0--------------------------3-----3----
-----------0----------------2/4------------2p0--4-----4--5----5------------0--
----------------0-------------------------------------------------------------
-----------------------------------------------------------------0------------
------------------------------------------------------------------------------
                                                                              

--------------3-----------------------||--------------------------------------
---3-------3-----3---3----------------||--------------------------------------
-------------------0---------------0--||--------------------------------------
-----------------------------0h2------||--------------------------------------
------2------------------3------------||--------------------------------------
--------------------------------------||--------------------------------------


Текст, аккорды и табулатура для песни "Tra Palco E Realta", исполняет "Ligabue".
Используемые в песне аккорды можно найти в разделе Как брать аккорды. Аккорды для шестиструнной гитары. Другие песни можно найти на нашем сайте, воспользовавшись алфавитным указателем вверху страницы.


Слушать онлайн Tra palco e realtà


LigabueTra palco e realtà на Яндекс.Музыке


 
Ошибка в тексте? Выделите ошибку и нажмите Ctrl+Enter