-------------------------------------------------------------------------------
			Lifehouse_-_Take Me Away(Acoustic)
				Plucking version 1.2
-------------------------------------------------------------------------------
Tabbed by:RaZoRb0iz
Email:[email protected]

Tuning: Standard tuning

If you hear the acoustic version carefully...there are 2 guitars...the first one
plays the chords throughout...the second plays these notes here...i've tried them
and they're as close that i can get them too..please try 'em out and get back to
me on your opinions and changes you think should be made.

Version 1.2 -- Small change made,one note only.
Version 1.1 -- Few changes here and there....notes either not right or something...
Version 1.0 -- First release!


Rhy.1.1
  E                  A5                  C#m7               A5
E|---------0---------------0--------------------0----0----------0--------|
B|----0--------0--------0-------0------------0-------0--------0----0-----|
G|--1----------------2--------------------1-----------------2------------|
D|2-------------------------------------------------------------------2--|
A|----------------------------------------------------------—------------|
E|-----------------------------------------------------------------------|

The LAST note played on the D string can be ignored the 2nd time through
playing Rhy.1.1

Rhy.1.2
  E                  A5                  C#m7               A5
E|---------0---------------0--------------------0--------------0---------|
B|----0----0---0--------0--0----0------------0--0----0-------0-0--0------|
G|--1----------------2--------------------1----------------2-------------|
D|--------------------------------------------------------------------2--|
A|----------------------------------------------------------—------------|
E|-----------------------------------------------------------------------|

Rhy.1.1   2x
Rhy.1.2	 2x
This time, all I want is you, there is no one else, who can take your place~~
This time, you burned me with your eyes, you see past all the lies, you take it
all away~~

(Only other guitar strums)
I've seen it all and it's never enough. It keeps leaving me needing you.

Chorus Rhy.1.1
E|-0--2---0--2----0-|---0-----2-|-----0---0-|---2-----5---------------------|
B|0-----------------|-0-----0---|-0h2---2---|-2-----2-----------------------|
G|------------------|-----------|-----------|-------------------------------|
D|------------------|-----------|-----------|-------------------------------|
A|------------------|-----------|-----------|------------------—------------|
E|------------------|-----------|-----------|-------------------------------|

Chorus Rhy.1.2
E|-0--2---0--2----0-|---0-----2-|-----0---0-|---2-----5---------------------|
B|------------------|-0-----0---|-0h2---2---|-2-----2-----------------------|
G|------------------|-----------|-----------|-------------------------------|
D|------------------|-----------|-----------|-------------------------------|
A|------------------|-----------|-----------|------------------—------------|
E|------------------|-----------|-----------|-------------------------------|

Chorus Rhy.1.1
Chorus Rhy.1.2
Take me away. Take me away.
I've got nothing left to say.
Just take me away.

Rhy.2 P1
E|--0--2--2--0-|--0---5--2-|--0--2-|--0---5--0--------------------------------
B|0------------|0----------|0------|0-----------------------------------------
G|-------------|-----------|-------|------------------------------------------
D|-------------|-----------|-------|------------------------------------------
A|-------------|-----------|-------|--------------------------------—---------
E|-------------|-----------|-------|------------------------------------------


Rhy.2 P2
E|--0--2--0----|--0--5—-0-2|0-2--2-0-|--0---5-2---2---------------------------
B|0------------|0----------|---------|0---------------------------------------
G|-------------|-----------|---------|----------------------------------------
D|-------------|-----------|---------|----------------------------------------
A|-------------|-----------|---------|------------------------------—---------
E|-------------|-----------|---------|----------------------------------------


Rhy.2 P2
I try, to make my way to you, but still I feel so lost,



Rhy.2 P3
E|--0--2--0----|--0--2—-0--|--0--2-0-|-------2-2---5--4--2--------------------
B|0------------|0----------|0--------|----------------------------------------
G|-------------|-----------|---------|----------------------------------------
D|-------------|-----------|---------|----------------------------------------
A|-------------|-----------|---------|------------------------------—---------
E|-------------|-----------|---------|----------------------------------------

Rhy.2 P3
I don't know what else I, can do~~

(Only other guitar strums)
I've seen it all and it's never enough. It keeps leaving me needing you.

Chorus Rhy.2.1
E|-0--2---0--2----0-|---2-----0-|-----0---0-|---2-----5---------------------|
B|0-----------------|-0-----0---|-0h2---2---|-2-----2-----------------------|
G|------------------|-----------|-----------|-------------------------------|
D|------------------|-----------|-----------|-------------------------------|
A|------------------|-----------|-----------|------------------—------------|
E|------------------|-----------|-----------|-------------------------------|

Chorus Rhy.2.2
E|-0--2---0--2----0-|---2-----0-|-----0---0-|---2-----5---------------------|
B|------------------|-0-----0---|-0h2---2---|-2-----2-----------------------|
G|------------------|-----------|-----------|-------------------------------|
D|------------------|-----------|-----------|-------------------------------|
A|------------------|-----------|-----------|------------------—------------|
E|------------------|-----------|-----------|-------------------------------|

Chorus Rhy.2.1
Chorus Rhy.2.2
Take me away. Take me away.
I've got nothing left to say.
Just take me away.

(Bridge)
Don't give up on me yet! Don't forget! Who I am!
I know I'm not there yet! But don't let! Me stay here alone!!!!!

(Directly after Bridge)
E|--0--2--5--2-|--0--2—-5—2-|--0--2---0-|--0--5--4---------------------------
B|0------------|0-----------|0----------|0-----------------------------------
G|-------------|------------|-----------|------------------------------------
D|-------------|------------|-----------|------------------------------------
A|-------------|------------|-----------|------------------------------------
E|-------------|------------|-----------|------------------------------------

Rhy.1.1
  E                  A5                  C#m7               A5
E|---------0---------------0--------------------0----0----------0--------|
B|----0--------0--------0-------0------------0-------0--------0----0-----|
G|--1----------------2--------------------1-----------------2------------|
D|2-------------------------------------------------------------------2--|
A|----------------------------------------------------------—------------|
E|-----------------------------------------------------------------------|

Rhy.1.2
  E                  A5                  C#m7               A5
E|---------0---------------0--------------------0--------------0---------|
B|----0----0---0--------0--0----0------------0--0----0-------0-0--0------|
G|--1----------------2--------------------1----------------2-------------|
D|--------------------------------------------------------------------2--|
A|----------------------------------------------------------—------------|
E|-----------------------------------------------------------------------|

Rhy.1.1

Rhy.1.2
This time, all I want is you, there is no one else, who can take your place~~

(Other guitar strums)
I've seen it all and it's never enough. It keeps leaving me needing you.

Chorus Rhy.1.1
E|-0--2---0--2----0-|---0-----2-|-----0---0-|---2-----5---------------------|
B|0-----------------|-0-----0---|-0h2---2---|-2-----2-----------------------|
G|------------------|-----------|-----------|-------------------------------|
D|------------------|-----------|-----------|-------------------------------|
A|------------------|-----------|-----------|------------------—------------|
E|------------------|-----------|-----------|-------------------------------|

Chorus Rhy.1.2
E|-0--2---0--2----0-|---0-----2-|-----0---0-|---2-----5---------------------|
B|------------------|-0-----0---|-0h2---2---|-2-----2-----------------------|
G|------------------|-----------|-----------|-------------------------------|
D|------------------|-----------|-----------|-------------------------------|
A|------------------|-----------|-----------|------------------—------------|
E|------------------|-----------|-----------|-------------------------------|

Chorus Rhy.2.1
Chorus Rhy.2.2
Take me away. Take me away.
I've got nothing left to say.
Just take me away.



This is my version of it...i warmly welcome ANY opinions and ANY changes that
you guys can give me...PLEASE hurry cuz i'm gonna play this for my friends
soon...


| /  slide up
|   slide down
| h  hammer-on
| p  pull-off
| ~  vibrato
| +  harmonic
| x  Mute note
===============================================================================


Текст, аккорды и табулатура для песни "Take Me Away Acoustic", исполняет "Lifehouse".
Используемые в песне аккорды можно найти в разделе Как брать аккорды. Аккорды для шестиструнной гитары. Другие песни можно найти на нашем сайте, воспользовавшись алфавитным указателем вверху страницы.


 
Ошибка в тексте? Выделите ошибку и нажмите Ctrl+Enter