This sounds great. The variations go great with acoustic.

Standard tuning
Capo: none (I play this with capo on 1st fret)

You can play this strumming or just listen to the song to get the strumming
perfect.
      down up up down up up down up down up up..... on Asus2, the strumming is 
down up down up down...

INTRO:
e|-----------------0-----|------0------------0--------      Repeat 2X
B|-------------------0---|--------0------------0------
G|----9----8-----6-----4-|----9-----8-----6------4----
D|----9----9-----6-----4-|----9-----9-----6------4----
A|----7----7-----4-----2-|----7-----0-----4------2----
E|----7----7-----x-----x-|----x-----x-----x------x----

VERSE 1:
e|-----------------0-----|------0------------0--------      Repeat 2X
B|-------------------0---|--------0------------0------
G|----9----2-----6-----4-|----9-----2-----6------4----
D|----9----2-----6-----4-|----9-----2-----6------4----
A|----7----------4-----2-|----7-----------4------2----
E|----x----------x-----x-|----x-----------x------x----

 Eno3      Asus2     C#min7      Bsus4
   I can't be losing sleep over this, no I can't
   And now I cannot stop pacing.
   Give me a few hours, I'll have this all sorted out
   If my mind would just stop racing.----directly into interlude---

Chorus 1:
e|--------------------------|-----0-----------------       Repeat 3X
B|--------------------------|-------0---------------
G|----2-2-2-2-2-2-2-2-2-2-2-|---6-----4-------------
D|----2-2-2-2-2-2-2-2-2-2-2-|---6-----4-------------
A|--------------------------|---4-----2-------------
E|----x-x-x-x-x-x-x-x-x-x-x-|---x-----x-------------
   
   C#min7   Bsus4           Asus2
   Cause I cannot stand still;
   I can't be this unsturdy;
   And this cannot be happening. (end on Asus2)

VERSE 2:
e|-----------------0-----|------0------------0--------      Repeat 2X
B|-------------------0---|--------0------------0------
G|----9----2-----6-----4-|----9-----2-----6------4----
D|----9----2-----6-----4-|----9-----2-----6------4----
A|----7----------4-----2-|----7-----------4------2----
E|----x----------x-----x-|----x-----------x------x----

  Eno3      Asus2    C#min7           Bsus4
   This is over my head but underneath my feet
   Cause by tomorrow morning I'll have this thing beat
   And everything will be back to the way that it was.
   I wish it was just that easy.---directly into interlude---

Chorus 2:
e|--------------------------|-----0-----------------       Repeat 3X
B|--------------------------|-------0---------------
G|----2-2-2-2-2-2-2-2-2-2-2-|---6-----4-------------
D|----2-2-2-2-2-2-2-2-2-2-2-|---6-----4-------------
A|--------------------------|---4-----2-------------
E|----x-x-x-x-x-x-x-x-x-x-x-|---x-----x-------------
       C#min7   Bsus4           Asus2
      Cause I'm waiting for tonight.
      Then waiting for tomorrow. 
      And I'm somewhere in between.
              (Asus2)
      What is real, and just a dream.

e|----------------------    Repeat 4X
B|----------------------
G|--1---2---6---4-------
D|--2---2---6---4-------
A|--2-------4---2-------
E|----------x---x-------

Ladedadedadeda
Ladedada
Ladedadedadedadeda-------Asus2

Verse 3:
[[ only on 3X ]]

e|-----[[0]]------------0-------        Repeat 4X
B|--------[[0]]-----------0-----
G|----9--------9-----6------4---
D|----9--------9-----6------4---
A|----7--------0-----4------2---
E|----7--------x-----x------x---

Go into Chorus 1 and 2 and tab after both. End on ASUS2.


Текст, аккорды и табулатура для песни "Somewhere In Between", исполняет "Lifehouse".
Используемые в песне аккорды можно найти в разделе Как брать аккорды. Аккорды для шестиструнной гитары. Другие песни можно найти на нашем сайте, воспользовавшись алфавитным указателем вверху страницы.


 
Ошибка в тексте? Выделите ошибку и нажмите Ctrl+Enter