weeds

BY LIFE OF AGONY
from album 'soul searching sun'

transcribed by Christian Reindel ([email protected])
any questions or corrections- e-mail me

TUNE DOWN ONE WHOLE STEP: Dropped C tuning

  X  - palm mute string on this fret
  6^ - play harmonic on this fret 

Riff 1 a
D:|--------------------------------------------------------------------|
A:|--------------------------------------------------------------------|
F:|--------------------------------------------------------------------|
C:|-5-5-5-5-5-5-5-5-5-5-5-5-5-5-5-5------------------------------------|
G:|-3-3-3-3-3-3-3-3-3-3-3-3-3-3-3-3-/-6-X-X-X-X-X-X-X-X----------------|
C:|---------------------------------/-6-X-X-X-X-X-X-X-X----------------|

Riff 1 b
D:|--------------------------------------------------------------------|
A:|--------------------------------------------------------------------|
F:|--------------------------------------------------------------------|
C:|-5-5-5-5-5-5-5-5-5-5-5-5-5-5-5-5------------------------------------|
G:|-3-3-3-3-3-3-3-3-3-3-3-3-3-3-3-3-/-6--------------------------------|
C:|---------------------------------/-6--6^-6^-6-^6^-6^-6^-6^-6^-------|

Riff 2 If tomorrow never shows .....
D:|-------------------------------------------------------------------|
A:|-------------------------------------------------------------------|
F:|-------------------------------------------------------------------|
C:|--/-5-5--X-X--X-X--X-X-X-------------------------------------------|
G:|--/-3-3--X-X--X-X--X-X-X--/-6-6------------------------------------|
C:|--------------------------/-6-6--6^-6-^6^-6^-6^-6^-6^-6^-6^--------|

Riff 3 And my life has passed me by 
D:|------------------------------------------------------------------|
A:|------------------------------------------------------------------|
F:|------------------------------------------------------------------|
C:|------------------------------------------------------------------|
G:|--3--3--3--3--3--3--3--3--3----5--5--5--5--5--5--5----------------|
C:|--3--3--3--3--3--3--3--3--3----5--5--5--5--5--5--5----------------|

Riff 4  I keep searching for something that I never found .....
D:|--------------------------------------------------------------------|
A:|--------------------------------------------------------------------|
F:|--------------------------------------------------------------------|
C:|-5-5-5-5-5-5-5-5-5--------------------------------------------------|
G:|-3-3-3-3-3-3-3-3-3-8-8-8-8-8-8-8-8-6--6-6--6---6-6-6-6--------------|
C:|-------------------8-8-8-8-8-8-8-8-6--6-6--6---6-6-6-6--------------|



Riff 5 This space between us...
D:|--------------------------------------------------------------------|
A:|--------------------------------------------------------------------|
F:|--------------------------------------------------------------------|
C:|---------3--3--3-3-3---5--5-5--5--5-5-5-5---------------------------|
G:|-1--1-1--1--1--1-1-1---3--3-3--3--3-3-3-3---------------------------|
C:|-1--1-1-------------------------------------------------------------|


song structure:

Riff 1 a
Riff 1 b
Riff 2 - 4 times
Riff 1 a
Riff 1 b
Riff 1 a
Riff 1 b
Riff 3 
Riff 4 - 4 times
Riff 2 - 4 times
Riff 1 a
Riff 1 b
Riff 3 
Riff 4 - 4 times
Riff 5
Riff 5 - guitarsolo starts
Riff 3 
Riff 4 - 4 times
Riff 5 - play until the end

end.


Текст, аккорды и табулатура для песни "Weeds", исполняет "Life Of Agony".
Используемые в песне аккорды можно найти в разделе Как брать аккорды. Аккорды для шестиструнной гитары. Другие песни можно найти на нашем сайте, воспользовавшись алфавитным указателем вверху страницы.


 
Ошибка в тексте? Выделите ошибку и нажмите Ctrl+Enter