***** This Time by Life of Agony ******
                   From the River Runs Red Album (track 1)

Tabbed by Daan Willems, Holland (email: [email protected])

stay tuned for: - River Runs Red - Method of Groove - Bad Seed -
If anyone has other LOA, Biohazard, Downset, Prong, Madball, Ni Hao, 
Sick of it All, Korn, Dog Eat Dog, Earth Crisis, Slapshot, Strife, 
Brotherhood Foundation, Zymosis, etc,
or just wants to chat about what it's all about: HARDCORE, then mail me!

Tune The Guitar 2 steps down, Life of Agony plays the Chords on the Bass
Guitar, so that's where they get that fat sound from.)

Notation Legend:
----------------

      : pick slide
 ^     : bend 1 tone up and release to original
 H     : play artificial Harmonics on tone under H.
 x     : palm muted chord
 =3=X= : repeat chords above this sign 3 times
===========================================================================

Riff A

|------------------------------------------------------------------
|------------------------------------------------------------------
|------------------7-7-7-7-7-7-7-7-----------------5-5-5-5-5-5-5-5-
|-2-2-2-2-2-2-2-2-7-7-7-7-7-7-7-7-7-7-7-7-7-7-7-7-5-5-5-5-5-5-5-5-
|-2-2-2-2-2-2-2-2-5-5-5-5-5-5-5-5-7-7-7-7-7-7-7-7-3-3-3-3-3-3-3-3-
|--0-0-0-0-0-0-0-----------------5-5-5-5-5-5-5-5-----------------

 -----------------------------------------------------------------|
 -----------------------------------------------------------------|
 -9-9-9-9-9-9-9-9-7-7-7-7-7-7-7-7---------------------------------|
 -9-9-9-9-9-9-9-9-7-7-7-7-7-7-7-7-7-7-7-7-7-7-7-7-7-7-7-7-7-7-7-7-|
 -7-7-7-7-7-7-7-7-5-5-5-5-5-5-5-5-7-7-7-7-7-7-7-7-7-7-7-7-7-7-7-7-|
 ---------------------------------5-5-5-5-5-5-5-5-5-5-5-5-5-5-5-5-|

Riff B

|------------------------------------|
|------------------------------------|
|------------------------------------|
|-5---xx-4---5-4-3---x-x-x-x-x-x-xx--|
|-5---xx-4---5-4-3---x-x-x-x-x-x-xx--|
|-3---xx-2---3-2-1---x-x-x-x-x-x-xx--|

Riff BB

|----------------||----------------|
|----------------||----------------|
|----------------||----------------|
|----------------||----------------|
|-0-3-5-5^5--5-3-||-0-3-0----------|
|----------------||-------3--0-1-2-|
 =======3=X======

Riff C                      Fill C

|--------------------|      |--------------------|
|--------------------|      |--------------------|
|--------------------|      |--------------------|
|-5-8-10-10^10--10-8-|      |-5-8-5-3------------|
|-5-8-10-10^10--10-8-|      |-5-8-5-3------------|
|-3-6-8--8 ^ 8--8--6-|      |-3-6-3-1--0-1-2-----|
 ========3=X=========

Riff D

|-----------|------------|-------------------------------|
|-----------|------------|----------H--------------------|
|-----------|------------|-------9--7--------------------|
|-5--9--2---|-2--7--2--2-|-2--7--9--7--7-xx-7-xxx-7-xx-7-|
|-5--9--2---|-2--7--2--2-|-2--7--7--5--7-xx-7-xxx-7-xx-7-|
|-3--7--0---|-0--5--0--0-|-0--5--------5-xx-5-xxx-5-xx-5-|

Fill D             Fill E                  Fill F (End)

|-----------|      |-----------------|      |---------------|
|-----------|      |-----------------|      |---------------|
|-5--9--2---|      |-2-2-2-2-2-2-2-2-|      |-5-xx-4-5-4-3-|   
|-5--9--2---|      |-2-2-2-2-2-2-2-2-|      |-5-xx-4-5-4-3-|
|-3--7--0---|      |-0-0-0-0-0-0-0-0-|      |-3-xx-2-3-2-1-|


Song:
-----

Riff A   2x  (first time alone, second time with drums)
Riff B   4x      
Riff BB  1x    
Riff C   1x     
Fill C   1x
Riff C   1x
Riff B   3x
Riff D   1x
Riff A   2x  (The rhythm is different here but I don't bother to 
              tab that out, just listen to the CD and you'll get it)
Riff BB  2x 
Riff B   3x
Fill D   1x
Fill E   7x
Riff C   1x
Fill C   1x
Riff C   1x
Riff B   3x  (this is when the solo is being played)
Riff D   1x
Riff A   2x  (The Rhythm is different again)
Fill E   8x
Fill F   1x


Текст, аккорды и табулатура для песни "This Time", исполняет "Life Of Agony".
Используемые в песне аккорды можно найти в разделе Как брать аккорды. Аккорды для шестиструнной гитары. Другие песни можно найти на нашем сайте, воспользовавшись алфавитным указателем вверху страницы.


 
Ошибка в тексте? Выделите ошибку и нажмите Ctrl+Enter