neg

by LIFE OF AGONY
from album 'soul searching sun'

transcribed by Christian Reindel ([email protected])
any questions or corrections- e-mail me

TUNE DOWN ONE WHOLE STEP: Dropped C tuning

Intro
D:|--------------------------------------------------------------|
A:|--------------------------------------------------------------|
F:|--------------------------------------------------------------|
C:|--------------------------------------------------------------|
G:|--7/8-8-8-8-8-8-8-8-7/8-8-8-8-10-10-10-10---------------------|
C:|--------------------------------------------------------------|

mainriff                           let ring
D:|------------------------------------------------------------|
A:|--------------------------4---------4-----------------------|
F:|--------------------------4-----4-------4-------------------|
C:|--------------------------2---2-----------------------------|
G:|--0-2-0----3--0--2--(2)-------------------------------------|
C:|--0-2-0----3--0--2--(2)-------------------------------------|

fill1
D:|----------|
A:|----------|
F:|----------|
C:|----------|
G:|--0-2-0---|
C:|--0-2-0---|

verseriff
D:|--------------------------|
A:|--------------------------|
F:|--------------------------|
C:|--------------------------|
G:|--2-2-2-2-3-3-3-3-0-------|
C:|--2-2-2-2-3-3-3-3-0-------|

interlude
D:|--------------------------------------------------------------|
A:|--------------------------------------------------------------|
F:|--------------------------------------------------------------|
C:|--------------------------------------------------------------|
G:|-5-5-5-5-5-5-5-5-5-5-5-5-5---------2-2-2-2-2-2-2-2-2-2-2------|
C:|-5-5-5-5-5-5-5-5-5-5-5-5-5--......-2-2-2-2-2-2-2-2-2-2-2------|

Outro
D:|--------------------------------------------------------------|
A:|--------------------------------------------------------------|
F:|--------------------------------------------------------------|
C:|--------------------------------------------------------------|
G:|---8/10-10-10-10-10-10-10-10--8/9-9-9-9-9-9-9-8---------------|
C:|--------------------------------------------------------------|

ending chords
D:|------------|
A:|------------|
F:|------------|
C:|------------|
G:|-3-0-2-(2)--|
C:|-3-0-2-(2)--|

song structure:

intro - 4 times
mainriff  
fill 1 
verseriff
mainriff
fill 1
verseriff
mainriff
fill 1
interlude - 2 times
mainriff
fill 1
outro - 4 times
ending chords

end.


Текст, аккорды и табулатура для песни "Neg", исполняет "Life Of Agony".
Используемые в песне аккорды можно найти в разделе Как брать аккорды. Аккорды для шестиструнной гитары. Другие песни можно найти на нашем сайте, воспользовавшись алфавитным указателем вверху страницы.


 
Ошибка в тексте? Выделите ошибку и нажмите Ctrl+Enter