MY EYES
BY LIFE OF AGONY

TUNE DOWN ONE WHOLE STEP:
6=D	3=F
5=G	2=A
4=C	1=D

     INTRO                               8 TIMES  
D:||----------------------|----------------------||
A:||----------------------|----------------------||
F:||*---------------------|---------------------*||
C:||*-----------------6---|-7b(9)b(7)-6------6--*||
G:||-7b(9)b(7)-7----7---7-|----------------7---7-||
D:||----------------------|----------------------||
                    .   .                  .   .

    VERSE
D:|------------|------------|------------|------------|
A:|------------|------------|------------|------------|
F:|------------|------------|------------|------------|
C:|------------|------------|------------|------------|
G:|-5--5--5--2-|-(2)--------|-(2)--------|-(2)--------|
D:|-3--3--3--0-|-(0)--------|-(0)--------|-(0)--------|
    .  .  .
D:|------------|------------|------------|
A:|------------|------------|------------|
F:|------------|------------|------------|
C:|------------|------------|------------|
G:|-(2)----2-2-|-2-------/7-|-(7)--------|
D:|-(0)----0-0-|-0----------|--------7--|

D:|------------------------|------------------------|
A:|------------------------|------------------------|
F:|------------------------|------------------------|
C:|------------------------|------------------------|
G:|-2--2--2--2--2--2--2--2-|-2--2--2--2--5--5--5--2-|
D:|-0--0--0--0--0--0--0--0-|-0--0--0--0--3--3--3--0-|
    .  .  .  .  .  .  .  .   .  .  .  .                     3 TIMES
D:||-----------------------------------|----------------------------||
A:||-----------------------------------|----------------------------||
F:||*----------------------------------|---------------------------*||
C:||*----------------------------------|---------------------------*||
G:||-(2)-------------------------------|-----------------5--5--5--2-||
D:||-(0)---0-0-0-0-0-0-0-0-0-0-0-0-0-0-|-0-0-0-0-0-0-0-0-3--3--3--0-||
           . . . . . . . . . . . . . .   . . . . . . . .
 D:|-----------------------------------|----------------------------|
 A:|-----------------------------------|----------------------------|
 F:|-----------------------------------|----------------------------|
 C:|-----------------------------------|----------------------------|
 G:|-(2)-------------------------------|-----------------5--5--5--2-|
 D:|-(0)---0-0-0-0-0-0-0-0-0-0-0-0-0-0-|-0-0-0-0-0-0-0-0-3--3--3--0-|
           . . . . . . . . . . . . . .   . . . . . . . . .  .  .

      CHORUS                                        4 TIMES
D:||----------------------------|---------------------------||
A:||----------------------------|---------------------------||
F:||*---------------------------|--------------------------*||
C:||*---------------------------|--------------------------*||
G:||-(2)--2--2--2--(2)--2--2--2-|-(2)--2--2--2-2-5--5--5--2-||
D:||-(0)--0--0--0--(0)--0--0--0-|-(0)--0--0--0-0-3--3--3--0-||
          .  .          .  .           .  .  . . .  .  .   

INTRO (4 TIMES)

VERSE

INTRO (4 TIMES)

     OUTRO (2 GUITARS)
     GUITAR 1 W/WHA                                  4 TIMES
D:||--------------------------|------------------------------||-------------|
A:||--------------------------|------------------------------||-------------|
F:||*----------------10-------|-10---------10---------10----*||-------------|
C:||*7--7--7--6----------9---9|-----9---9------9---9------9-*||-7--7--7--6--|
G:||--------------------------|------------------------------||-------------|
D:||--------------------------|------------------------------||-------------|
  || .  .  .  ah     ah  .   .  ah  .   .  ah  .   .  ah  .     .  .  .  ah |    
  || GUITAR 2                                        4 TIMES                |
D:||--------------------------|------------------------------||-------------|
A:||--------------------------|------------------------------||-------------|
F:||*-------------------------|-----------------------------*||-------------|
C:||*-------------------------|-----------------------------*||-------------|
G:||-7--7--7--6--(6)--6--6--6-|-(6)--6--6--6--(6)--6--6--6-6-||-7--7--7--6--|
D:||-5--5--5--4--(4)--4--4--4-|-(4)--4--4--4--(4)--4--4--4-4-||-5--5--5--4--|
     .  .  .          .  .           .  .          .  .  . .    .  .  . 

transcribed by Paul Kiepert
[email protected]


Текст, аккорды и табулатура для песни "My Eyes", исполняет "Life Of Agony".
Используемые в песне аккорды можно найти в разделе Как брать аккорды. Аккорды для шестиструнной гитары. Другие песни можно найти на нашем сайте, воспользовавшись алфавитным указателем вверху страницы.


 
Ошибка в тексте? Выделите ошибку и нажмите Ctrl+Enter