METHOD OF GROOVE
BY LIFE OF AGONY

TUNE DOWN ONE WHOLE STEP:
6=D	3=F
5=G	2=A
4=C	1=D

     INTRO           11 TIMES             
D:||--------------------------||----------------------------|
A:||--------------------------||----------------------------|
F:||*------------------------*||----------------------------|
C:||*------------------------*||--------------8-8-8-8-8-8-8-|
G:||-------7-6------6--6^7----||-------7-6----6-6-6-6-6-6-6-|
D:||-0--0---------0-----------||-0--0-----------------------|
                                              . . . . . . .

     VERSE                                           3 TIMES
D:||----------------------------|----------------------------||
A:||----------------------------|----------------------------||
F:||*9--9--------9----9--9-9-9-|-5--5--------5----5--5-5-5/*||
C:||*9--9--------9----9--9-9-9-|-5--5--------5----5--5-5-5/*||
G:||-7--7--------7----7--7-7-7-|-3--3--------3----3--3-3-3/-||
D:||-------0-0-0----0-----------|-------0-0-0----0-----------||
           . . .    .                   . . .    .    
 D:|----------------------------|----------------------------|
 A:|----------------------------|----------------------------|
 F:|-9--9--------9----9--9-9-9-|-5--5--------5----5---------|
 C:|-9--9--------9----9--9-9-9-|-5--5--------5----5---------|
 G:|-7--7--------7----7--7-7-7-|-3--3--------3----3---------|
 D:|-------0-0-0----0-----------|-------0-0-0----0-----------|
           . . .    .                   . . .    .

     CHORUS
     1                            2                      5 TIMES
D:||----------------------------|--------------------------------||
A:||----------------------------|--------------------------------||
F:||*9-9-9--9--X-5--5-5--5--X-X-|-10-10-10--10------------------*||
C:||*9-9-9--9--X-5--5-5--5--X-X-|-10-10-10--10--X-7--7-7--7--X-X*||
G:||-7-7-7--7--X-3--3-3--3--X-X-|-8--8--8---8---X-7--7-7--7--X-X-||
D:||----------------------------|---------------X-5--5-5--5--X-X-||
                                 3
 D:|----------------------------|--------------------------------|
 A:|----------------------------|--------------------------------|
 F:|-9-9-9--9--X-5--5-5--5--X-X-|-10-10-10--10-------------------|
 C:|-9-9-9--9--X-5--5-5--5--X-X-|-10-10-10--10--X-7--------------|
 G:|-7-7-7--7--X-3--3-3--3--X-X-|-8--8--8---8---X-7--------------|
 D:|----------------------------|---------------X-5--------------|

 D:|-------------------------------------------------------------|
 A:|-------------------------------------------------------------|
 F:|-------------------------------------------------------------|
 C:|-7-----------------------------------------------------------|
 G:|-7-----3-----5-------------------------------------------(5)-|
 D:|-5-----3-----5-------------------------------------------(5)-|

     MIDDLE           7 TIMES               
D:||--------------------------||----------------------------|
A:||--------------------------||----------------------------|
F:||*------------------------*||----------------------------|
C:||*------------------------*||--------------8-8-8-8-8-8-8-|
G:||-------7-6------6--6^7----||-------7-6----6-6-6-6-6-6-6-|
D:||-0--0---------0-----------||-0--0-----------------------|
                                              . . . . . . .
VERSE
 
     CHORUS 2                     2                      5 TIMES
D:||----------------------------|--------------------------------||
A:||----------------------------|--------------------------------||
F:||*9-9-9--9--X-5--5-5--5--X-X-|-10-10-10--10------------------*||
C:||*9-9-9--9--X-5--5-5--5--X-X-|-10-10-10--10--X-7--7-7--7--X-X*||
G:||-7-7-7--7--X-3--3-3--3--X-X-|-8--8--8---8---X-7--7-7--7--X-X-||
D:||----------------------------|---------------X-5--5-5--5--X-X-||

 D:|----------------------------|--------------------------------|
 A:|----------------------------|--------------------------------|
 F:|-9-9-9--9--X-5--5-5--5--X-X-|-10-10-10--10----------------7--|
 C:|-9-9-9--9--X-5--5-5--5--X-X-|-10-10-10--10--X-7--7-7--7---7--|
 G:|-7-7-7--7--X-3--3-3--3--X-X-|-8--8--8---8---X-7--7-7--7---5--|
 D:|----------------------------|---------------X-5--5-5--5------|

     BRIDGE                                      6 TIMES 
D:||-------------------------|----------------------------||
A:||-------------------------|----------------------------||
F:||*9-----9--7--9--7--------|-------------------------7-*||
C:||*9-----9--7--9--7------7-|/8-------------3--2------7-*||
G:||-7-----7--5--7--5------7-|/8-------------3--2------5--||
D:||-------------------0-0-5-|/6-----0-0-0-0-1--0--0-0----||
                       . .           . . . .

    SOLO W/WHA (RHYTHM BARS 1,2,1,2,1,2,1,3) *not sure about solo
D:|-------------------------------|-------------------------------|
A:|-------------------------------|-------------------------------|
F:|-------------------------------|----------------------------10-|
C:|-------------------------------|-------------------------------|
G:|-8^7-7--7----7-8^7--77-7----77-|-8^7-7--7----7-8^7--77-7----8--|
D:|-------------------------------|-------------------------------|

D:|---------------------------------|-------------------------------|
A:|---------------------------------|-------------------------------|
F:|-109-----------109-------------|----------------------------XX-|
C:|---------------------------------|-------------------------------|
G:|-87-7--7----8-87--77-7----7--|-8^7-7--7----7-8^7--77-7-------|
D:|---------------------------------|-------------------------------|

D:|------------------------------------------|
A:|------------------------------------------|
F:|-14^12-12--12----12-14^12--1212-12----12--|
C:|------------------------------------------|
G:|------------------------------------------|
D:|------------------------------------------|

D:|------------------------------------------|
A:|------------------------------------------|
F:|-14^12-12--12----14-14^12--1212-12--------|
C:|------------------------------------------|
G:|------------------------------------------|
D:|------------------------------------------|

D:|------------------------------------------|
A:|------------------------------------------|
F:|-10^12-12--12----10-10-12--12--12----10---|
C:|------------------------------------------|
G:|------------------------------------------|
D:|------------------------------------------|

D:|------------------------------------------|
A:|------------------------------------------|
F:|-10^12-12--10--12-9-----------(9)--------|
C:|------------------------------------------|
G:|------------------------------------------|
D:|------------------------------------------|

    OUTRO
D:|-------------------------------------------------------------|
A:|-------------------------------------------------------------|
F:|-------------------------------------------------------------|
C:|-7-----------------------------------------------------------|
G:|-7-----3-----5-------------------------------------------(5)-|
D:|-5-----3-----5-------------------------------------------(5)-|

                      3 TIMES
D:||--------------------------||
A:||--------------------------||
F:||*------------------------*||
C:||*------------------------*||
G:||-------7-6------6--6^7----||
D:||-0--0---------0-----------||

D:|-------------------------------------------------------------|
A:|-------------------------------------------------------------|
F:|-------------------------------------------------------------|
C:|-7-----------------------------------------------------------|
G:|-7-----3-----5-------------------------------------------(5)-|
D:|-5-----3-----5-------------------------------------------(5)-|

                      3 TIMES            LET NOTE RING TILL END
D:||--------------------------||--------------------------------|
A:||--------------------------||--------------------------------|
F:||*------------------------*||--------------------------------|
C:||*------------------------*||--------------------------------|
G:||-------7-6------6--6^7----||-------7-6------------------(6)-|
D:||-0--0---------0-----------||-0--0---------------------------|

transcribed by Paul Kiepert
[email protected]


Текст, аккорды и табулатура для песни "Method Of Groove", исполняет "Life Of Agony".
Используемые в песне аккорды можно найти в разделе Как брать аккорды. Аккорды для шестиструнной гитары. Другие песни можно найти на нашем сайте, воспользовавшись алфавитным указателем вверху страницы.


 
Ошибка в тексте? Выделите ошибку и нажмите Ctrl+Enter