toda la саnсiуn. Em - G - C - C

e---------------------------
b--0-0--0-0--1-1-1-1--------
G--0-0--0-0--0-0-0-0--------
D--2-2--0-0--2-2-2-2--------
A--2-2--2-2--3-3-3-3--------
E--0-0--3-3--0-0-0-0--------

e------------------
b------------------
G-----7--7s9~~~----
D------------------
A------------------
E------------------

e---------------------------
b---------------------------    X 2 
G---9-7-5-4-5-4-2-4-2-0-----
D---------------------------


b---------------------------
G--------------5-5-5-5-5-5--
D--2-2--5-5-5--5-5-5-5-5-5--
A--2-2--5-5-5--3-3-3-3-3-3--
E--0-0--3-3-3---------------

solo:
e------------------------------ 3s5s3---------
b--3s5-5--3s5-5-3s5-5-5s8s5-3s5------5--3s5-5-
G---------------------------------------------

------------------------------------------
--3s5-5-3s5--5-3--------------------------
-----------------5-4-5-4-2-4-2-0--2~~-2~~-

------------------------3-------3-3s5-3---
-------------3s5-5--3s5--5--3s5---------5-
-2~~-2~~-2~~------------------------------

-17^-15^-------------3-------3s5--
--------17~~---3s4s5---3s4s5------
----------------------------------

--------3---3---3-----
--3s4s5---5---5---5---
----------------------

---------------------------
---------------------------
---9-7-5-4-5~-4-2-4-2-0----

---------------------------
---------------------------
---9-7-5-4-5~-4-2-4-2-0----

..yo quiero ser tu violador..
		e-----------------
		b-----------------
		G---5-5-5-5-5-----
		D---5-5-5-5-5-----
		A---3-3-3-3-3-----
		E-----------------

e---------------------------------------
b------------------------10--12~-12-12--
G---9~~~9~~~9~~~9~~~9~~~----------------
D---------------------------------------

-----------------------------------------------
--12----12s14-12----12-12---15s17-15s17-15s17--
-----14----------14----------------------------
-----------------------------------------------

------------15-------------15s17-15-----------------
---15s17-17----17-15s17-17----------17-15-15s17-15--
----------------------------------------------------
----------------------------------------------------

------------------0-----
------------------0-----
--17-15-15s17-15--0-----
------------------2-----
------------------2-----
------------------0-----


Текст, аккорды и табулатура для песни "Don", исполняет "Libido".
Используемые в песне аккорды можно найти в разделе Как брать аккорды. Аккорды для шестиструнной гитары. Другие песни можно найти на нашем сайте, воспользовавшись алфавитным указателем вверху страницы.


 
Ошибка в тексте? Выделите ошибку и нажмите Ctrl+Enter