HERE IS THE ALHOUETTE TAB FROM LETTERS TO CLEO ENJOY!!!


E|-3----3--3----3---3------------|
G|-3----3--3----5---5-(5--5-6)---|
B|-5----5--5----5---5------------|
D|-5----5--5----5---5------------|    x2
A|-3----3--3----3---3------------|
E|-3----3--3----3---3------------|
(this is the intro)

E|---4-----------------3-------|
G|---5------5----3-----3-------|
B|---4------4----------3-------|  
D|----------4----4-----5-------|    then the intro part | x2
A|---------------5-----5-------|
E|---------------------3-------|      

chorus

E|------5--------------6-------
G|------6--------------6-------|
B|------7-------4------6-------|
D|------0-------5------8-------|   then the same thing but after this 
A|--------------5------6-------|
E|-----------------------------|

immediately play 

E|-----------------4------------|
G|-----------5-----5------------|
B|-----------5-----4------------|
D|-----------5------------------|
A|------------------------------| 
E|------------------------------|
              

the break is...

E|--6---6----------4-----
G|--6---6-----5----5-----
B|------------5----4-----  x3
D|------------5----------
A|--5---5----------------
E|--6---6----------------



E|-6-----------5------------6-----4--|
G|-6-----5-----6------------6-----5--|
B|-------5-----7------4-----6-----4--|
D|-------5-----0------5-----8--------|
A|-5------------------5-----6--------|
E|-6---------------------------------|


Текст, аккорды и табулатура для песни "Alhouette", исполняет "Letters To Cleo".
Используемые в песне аккорды можно найти в разделе Как брать аккорды. Аккорды для шестиструнной гитары. Другие песни можно найти на нашем сайте, воспользовавшись алфавитным указателем вверху страницы.


 
Ошибка в тексте? Выделите ошибку и нажмите Ctrl+Enter