Song: Where the hell Mike Stinkovich?
Band: Less Than Jake
Album: Losers, king, and things we don't understand...or Pezcore
tabbed by:Mathieu.Guimont

Part 1

G:---------------------------------------------------------------
D:5-54-4---------------------------------------------------5-54-4
A:------7-75-54-4------7-----4-------4-------4-------4-----------
E:---------------7-75-5---55---5-555---5-555---5-555---5-5-------

G:---------------------------------------------------------------
D:-------------------------------7----------------7--------------
A:7-75-54-4------7----4-------5-5-5----4-------5-5-5----4-------5
E:---------7-75-5--55---5-333-------55---5-333-------55---5-333--
                                              
G:---------------------------------------------------------------
D:-7----------------7--------------------------------------------
A:5-5----4-------5-5-5-------------------------------------------
E:----55---5-333--------5----------------------------------------

Part 2

G:---------------------------------------------------------------
D:-------------------------5-5-44--------------------------------
A:----4-55-4------4-55-4----------77-5--7-5-44-----------4-55-4--
E:5-5-------5-5-5-------5----------------------77-5--5-5-------5-

G:---------------------------------------------------------------
D:-------------5-5-44--------------------------------------------
A:----4-55-4----------77-5--7-5-44-------------------------------
E:5-5-------5----------------------77-5--------------------------

Part 3

G:---------------------------------------------------------------
D:-------------------------5-54-4--------------------------------
A:--454---454---454---454--------7-75-54-4------7----454---454---
E:5-----5-----5-----5---------------------7-75-5-5-5-----5-----5-

G:---------------------------------------------------------------
D:-----------5-54-4---------------------------7-----------7------
A:454----454-------7-75-54-4------7----454---5-5---454---5-5-----
E:----5---------------------7-75-5-5-5-----3-----5-----3-----5---

G:---------------------------------------------------------------
D:-------7-----------7-------------------------------------------
A:454---5-5---454---5-5------------------------------------------
E:----3-----5-----3----------------------------------------------

Ending

G:---------------------------------------------------------------
D:--------------------5-54-4-------------------------------------
A:--4----4----4----4--------7-75-54-4----------------------------
E:55-5--5-5--5-5--5-5----------------7-75-55---------------------


Текст, аккорды и табулатура для песни "Where The Hell Is Mike Stinkovich", исполняет "Less Than Jake".
Используемые в песне аккорды можно найти в разделе Как брать аккорды. Аккорды для шестиструнной гитары. Другие песни можно найти на нашем сайте, воспользовавшись алфавитным указателем вверху страницы.


 
Ошибка в тексте? Выделите ошибку и нажмите Ctrl+Enter