#----------------------------------PLEASE NOTE--------------------------------#
#This file is the author's own work and represents their interpretation of the#
#song. You may only use this file for private study, scholarship, or research.#
#-----------------------------------------------------------------------------#
#-- File created with Instab - http://www.pconline.com/~smcarey/instab.html --#
#-----------------------------------------------------------------------------#

Author/Artist: less than jake
Title: the science of selling yourself short
Album: anthem
Transcribed by: paul
Email: [email protected]

everything is very accurate! spent a long time working out the
right ska chords.you can play them as full chords if you like but these sound/are better.
thats all there is. so the overall harmony is there!Play it along to the cd!it soundright
enjoy!
play with an upbeat reggae feel and work out whento play each part!

-|------------------5-5-5-5-3---3---5h6p5---------------------------------|--
-|--6-5-----5-6-3-------------6---6----------------------6-6-6-------6--6-|--
-|------7-----------------------------------2-5-2-5-5/7-------7-5-2-------|--
-|------------------------------------------------------------------------|--
-|------------------------------------------------------------------------|--
-|------------------------------------------------------------------------|--
    trumpetintro                                                             
     F        Am        Dm        C                                                         
-|-x-5-x-5--x-5-x-5--x--5-x-5--x-8--x--8-----|-------------------------------
-|-x-6-x-6--x-5-x-5--x--6-x-6--x-8--x--8-----|-------------------------------
-|-x-5-x-5--x-5-x-5--x--7-x-7--x-9--x--9-----|-------------------------------
-|----------x-7-x-7--x--7-x-7--x-10-x--10----|-------------------------------
-|-------------------------------------------|-------------------------------
-|-------------------------------------------|-------------------------------
  verse and intro                                                            
     Dm      Am      Dm      Am      Gm      C       Gm     C
-|-x-5-x-5-x-5-x-5-x-5-x-5-x-5-x-5-x-3-x-3-x-3-x-3-x-3-x-3--3-3----|---------
-|-x-6-x-6-x-5-x-5-x-6-x-6-x-5-x-5-x-3-x-3-x-5-x-5-x-3-x-3--5-5----|---------
-|-x-7-x-7-x-5-x-5-x-7-x-7-x-5-x-5-x-3-x-3-x-5-x-5-x-3-x-3--5-5----|---------
-|-x-7-x-7-x-7-x-7-x-7-x-7-x-7-x-7-x-5-x-5-x-5-x-5-x-5-x-5--5-5----|---------
-|----------------------------------------------------------3-3----|---------
-|-----------------------------------------------------------------|---------
  so i sit and wait and wonder...                                            
     A#      F         C
-|-x-6-x-6-x-8--x-8--x-8--x-8--x-8--x-8---|----------------------------------
-|-x-6-x-6-x-10-x-10-x-8--x-8--x-8--x-8---|----------------------------------
-|-x-7-x-7-x-10-x-10-x-9--x-9--x-9--x-9---|----------------------------------
-|-x-8-x-8-x-10-x-10-x-10-x-10-x-10-x-10--|----------------------------------
-|----------------------------------------|----------------------------------
-|----------------------------------------|----------------------------------
chorus                                                                       
    Dm              Am              Bb              F  C 
-|-x-5-x-5-x-5-x-5-x-5-x-5-x-5-x-5-x-1-x-1-x-1-x-1---1--3---|----------------
-|-x-6-x-6-x-6-x-6-x-5-x-5-x-5-x-5-x-3-x-3-x-3-x-3---1--5---|----------------
-|-x-7-x-7-x-7-x-7-x-5-x-5-x-5-x-5-x-3-x-3-x-3-x-3---2--5---|----------------
-|-x-7-x-7-x-7-x-7-x-7-x-7-x-7-x-7-x-3-x-3-x-3-x-3---3--5---|----------------
-|---------------------------------------------------3--3---|----------------
-|---------------------------------------------------1------|----------------
  middle( let the meaning slip away.......


Текст, аккорды и табулатура для песни "The Science Of Selling Yourself Short", исполняет "Less Than Jake".
Используемые в песне аккорды можно найти в разделе Как брать аккорды. Аккорды для шестиструнной гитары. Другие песни можно найти на нашем сайте, воспользовавшись алфавитным указателем вверху страницы.


 
Ошибка в тексте? Выделите ошибку и нажмите Ctrl+Enter