Less Than Jake - Surrender
Album - Anthem	

Intro

e|---------------------------------|
B|---------------------------------|
G|---------------------------------|
D|-6-66-66-6-6-68--x2--------------|   
A|-6-66-66-6-6-68------------------|
E|-4-44-44-4-4-46------------------|

 or you can play it

e|---------------------------------|
B|---------------------------------|
G|-1-11-11-1-1-13------------------|
D|-1-11-11-1-1-13--x2--------------|    play it which sounds better to you
A|-1-11-11-1-1-11------------------|
E|---------------------------------|
    

Verse - play muted

e|------------------------------------------------|
B|------------------------------------------------|
G|-4-444444------------------444444---------------|
D|-4-444444--444444--222222--444444--x2-----------|
A|-2-222222--444444--222222--222222---------------|
E|-----------222222-------------------------------|

Don't play this muted

e|------------------------------------------------|
B|------------------------------------------------|
G|-------------------4-44-44-4-4------------------|
D|-2-2-2-2--4-4-4-4--4-44-44-4-4--x2--------------|
A|-2-2-2-2--4-4-4-4--2-22-22-2-2------------------|
E|----------2-2-2-2-------------------------------|


Chorus

e|-------------------------------------------|
B|-------------------------------------------|
G|-4-4444------------------1-1111------------|
D|-4-4444--6-6666--4-4444--2-2222--Repeat----|
A|-2-2222--6-6666--4-4444--2-2222------------|
E|---------4-4444--2-2222--------------------|

after this chorus it goes higher

Intro

e|---------------------------------|
B|---------------------------------|
G|---------------------------------|
D|-7-77-77-7-7-79--x2--------------|   
A|-5-55-55-5-5-57------------------|
E|-5-55-55-5-5-57------------------|

you can figure the strumming pattern out, but its pretty simple. please rate my
tab because it is my first so i want to no how i did


Текст, аккорды и табулатура для песни "Surrender", исполняет "Less Than Jake".
Используемые в песне аккорды можно найти в разделе Как брать аккорды. Аккорды для шестиструнной гитары. Другие песни можно найти на нашем сайте, воспользовавшись алфавитным указателем вверху страницы.


 
Ошибка в тексте? Выделите ошибку и нажмите Ctrl+Enter