-------------------------------------------------------------------------------
              Scott Farcas Takes It On The Chin - Less Than Jake
------------------------------------------------------------------------------- 
                               Tabbed By Yan C.
                              [email protected]

1 - Intro 1
2 - ska solo
3 - Verse
4 - Chorus
5 - Intro 2
6 - verse
7 - chorus
8 - Intro 3
9 - Bridge ( Listen You'll Know It All )
10 - End Chorus



*********************************Intros***************************************





[Pic Scrape][------With Distortion--------]--Intro--
[----1x----][-------------4x--------------]----1----

e|--------------xxxx---xxxx---xxxx---xxxx-----------xxxx---xxxx------x---x---|
B|--------------xxxx---xxxx---xxxx---xxxx-----------xxxx---xxxx------x---x---|
G|--------------6666---8888---xxxx---xxxx-----------6666---8888------x---x---|
D|--------------6666---8888---4444---6666-----------6666---8888------4---6---|
A|--xxxxx-------4444---6666---4444---6666-----------4444---6666------4---6---|
E|--xxxxx-------xxxx---xxxx---2222---4444-----------xxxx---xxxx------2---4---|
               
---Intro----[-------------------------1x-------------------------------------]
-----2------[------------------------Without Distortion--------][Disto Blasts]


----Intro-3----[---------2x---------------]
---------------[----Without Distortion----]




*******************************Ska Solo***************************************

[------------------------------------2x--------------------------------------]

e|----------------------4444---6666---2222---4444----------------------------|
B|----------------------6666---7777---2222---4444----------------------------|
G|----------------------6666---8888---3333---6665----------------------------|
D|----------------------xxxx---xxxx---4444---6666----------------------------|
A|----------------------xxxx---xxxx---xxxx---xxxx----------------------------|
E|----------------------xxxx---xxxx---xxxx---xxxx----------------------------|


*********************************Verse****************************************

[----------------------------------4x----------------------------------------]

e|----------------------4444---6666---2222---4444----------------------------|
B|----------------------6666---7777---2222---4444----------------------------|
G|----------------------6666---8888---3333---5555----------------------------|
D|----------------------xxxx---xxxx---4444---6666----------------------------|
A|----------------------xxxx---xxxx---xxxx---xxxx----------------------------|
E|----------------------xxxx---xxxx---xxxx---xxxx----------------------------|


*******************************Chorus - Slow Ska******************************

[----------------------3x-----------------------][-1x-][--Strumming--][-Wait-]

e|----------x6-x6--x2-x2--x4-x4--x4-x4--------------2-------4444-------------|
B|----------x7-x7--x2-x2--x4-x4--x4-x4--------------2-------4444-------------|
G|----------x8-x8--x3-x3--x6-x6--x5-x5--------------3-------5555-------------|
D|----------xx-xx--x4-x4--xx-xx--x6-x6--------------4-------6666-------------|
A|----------xx-xx--xx-xx--xx-xx--xx-xx--------------x-------xxxx-------------|
E|----------xx-xx--xx-xx--xx-xx--xx-xx--------------x-------xxxx-------------|


***********************************End Chorus*********************************

[----------1x--------][---------3x--------]--[------4x-------]-Then-[-End-]
e|---x-xxxx-xxxx-xxxx--xxxx-xxxx-xxxx-xxxx----xx-x/xx-xx-x/xx----------x-----|
B|---x-xxxx-xxxx-xxxx--xxxx-xxxx-xxxx-xxxx----xx-x/xx-xx-x/xx----------x-----|
G|---8-xxxx-6666-xxxx--8888-xxxx-6666-xxxx----66-x/xx-88-x/xx----------6-----|
D|---8-4444-6666-6666--8888-4444-6666-6666----66-4/66-88-4/66----------6-----|
A|---6-4444-4444-6666--6666-4444-4444-6666----44-4/66-66-4/66----------4-----|
E|---x-2222-xxxx-4444--xxxx-2222-xxxx-4444----xx-2/44-xx-2/44----------x-----|

===============================================================================


Текст, аккорды и табулатура для песни "Scott Farcas Takes It On The Chin", исполняет "Less Than Jake".
Используемые в песне аккорды можно найти в разделе Как брать аккорды. Аккорды для шестиструнной гитары. Другие песни можно найти на нашем сайте, воспользовавшись алфавитным указателем вверху страницы.


 
Ошибка в тексте? Выделите ошибку и нажмите Ctrl+Enter