Song: Scott Farcas Takes It On the Chin
Artist: Less than Jake
Tabbed By: Andreas Skotheim ([email protected])


Intro: intro is also the same as the verse.

1-------------------------------------------
2----------------------4-4-4-4-4-6-6-6-6-6-6
3--4-4-444-6-6-6-6-6-6----------------------    2x
4-------------------------------------------

1----------------66----565
2----33----44--44--4-66---
3--44--4-66--6------------    1x
4-------------------------

so you can play the top part once more, then this:

1------------------------------------------------------------------
2--------------------------------------------------------------4--6-6-6-6
3--4   wait for a time while the guitar is playing then--4--6------
4------------------------------------------------------------------

Verse:

1----------331---66----565---------331------------------
2----33--------44--4-66------33--------4-4-3-3-4-6-4-3--
3--44--4-66----------------44--4-66--------------------6    2x
4-------------------------------------------------------

pre chorus:

1-----------------------------
2-----------------------------
3--6-6-68-9-9-98-------------5    3x
4----------------9-9-98-4-4-4-

1---------------------------------
2-------444433331111--------------
3------------------------3---3-4-6
4--2222--------------4-4---4------

Chorus is the same as the intro. play it 1x

Verse: 2x

Pre chorus: 3x

Chorus:  1x

1st part of intro then:

1-----------------------------
2--4-4-4-4-4-4-4--6-6--6-6-6-6
3-----------------------------
4-----------------------------

bridge:

1----------------------------------------6-----5-6
2----3-----3-----3-----3-----3-----4---4---4-6----
3--4---4-4---4-4---4-4---4-4---4-6---6------------  5x, when you play it 5 
times you just
4-------------------------------------------------  play the last part. 
Listen to the song!!

Interlude:

1-------------------------------------------------            
1-----------------------------
2-------------------------------------------------            
2-----------------------------
3--6-6-6-6-6-6-------------4-4-4-4-4-4------------   3x then: 
3---------------------------4-
4--------------2-2-2-2-2-2-------------4-4-4-4-4-4            
4--2-2-2-2-2-2--4-4-4-4-4-4---

Outro:

1-----------------------
2-----------------------
3--4-4-------0-6-6------    2x   ends with a pick on the 4. YES!!!
4------0-4-4-------0-2-2

That`s it    TABBED BY ANDREAS!


Текст, аккорды и табулатура для песни "Scott Farcas Takes It On The Chin", исполняет "Less Than Jake".
Используемые в песне аккорды можно найти в разделе Как брать аккорды. Аккорды для шестиструнной гитары. Другие песни можно найти на нашем сайте, воспользовавшись алфавитным указателем вверху страницы.


 
Ошибка в тексте? Выделите ошибку и нажмите Ctrl+Enter